Табулатура Nightwish | Sleeping Sun гитара табулатуры уроки тексты песен Nightwish текст lyrics песня аккорды песни ноты нота электрогитара струна  
   А Б В Г Д Е Ж З И К Л М Н О П Р С Т У Ф Х Ч Ш Ы Э Ю Я       Разные песни
1-9 A B C D E F G H I J K L M N O P Q R S T U V W Y Z      Все исполнители in english

    



группа Nightwish, Табулатура песни Sleeping Sun

Работа в Европе для граждан РФ, Украины, СНГ

  • минимальная зарплата $500.
  • виза и контракт на полгода, возможно продление
  • проживание оплачивает работодатель
  • нужен только загранпаспорт
  • оформление 190 €
  • данное предложение - отличная возможность эмигрировать в Европу и закрепиться здесь навсегда.

  • Мы свяжемся с Вами по WhatsApp или Viber и ответим на любые вопросы.
    на нашем сайте можно почитать подробнее »

    Группа: Nightwish - другие аккорды (414),   о группе (12 статей),   диски (6),   фотографии (25)
    Табулатура песни: Sleeping Sun
    Просмотров: 1540
    Подобрал: Forever (forever@akkords.ru)




        
                                     Sleeping Sun                                   
    
                                                       
    
    1
                                                                                   
    E||------------------|------------------|------------------|------------------|
    B||------------------|------------------|------------------|------------------|
    G||------------------|------------------|------------------|------------------|
    D||------------------|------------------|------------------|------------------|
    A||------------------|------------------|------------------|------------------|
    E||------------------|------------------|------------------|------------------|
    
                                                                                
    ------------------|------------------|------------------|------------------|
    ------------------|------------------|------------------|------------------|
    ------------------|------------------|------------------|------------------|
    ------------------|------------------|------------------|------------------|
    ------------------|------------------|------------------|------------------|
    ------------------|------------------|------------------|------------------|
    
                                                                                
    ------------------|------------------|------------------|------------------|
    ------------------|------------------|------------------|------------------|
    ------------------|------------------|------------------|------------------|
    ------------------|------------------|------------------|------------------|
    ------------------|------------------|------------------|------------------|
    ------------------|------------------|------------------|------------------|
    
                                                                                
    ------------------|------------------|------------------|------------------|
    ------------------|------------------|------------------|------------------|
    ------------------|------------------|------------------|------------------|
    ------------------|------------------|------------------|------------------|
    ------------------|------------------|------------------|------------------|
    ------------------|------------------|------------------|------------------|
    
                                                                                
    ------------------|------------------|------------------|------------------|
    ------------------|------------------|------------------|------------------|
    ------------------|------------------|------------------|------------------|
    ------------------|------------------|------------------|------------------|
    ------------------|------------------|------------------|------------------|
    ------------------|------------------|------------------|------------------|
    
                                                                                
    ------------------|------------------|------------------|------------------|
    ------------------|------------------|------------------|------------------|
    ------------------|------------------|------------------|------------------|
    ------------------|------------------|------------------|------------------|
    ------------------|------------------|------------------|------------------|
    ------------------|------------------|------------------|------------------|
    
                                                                                
    ------------------|------------------|------------------|------------------|
    ------------------|------------------|------------------|------------------|
    ------------------|------------------|------------------|------------------|
    ------------------|------------------|------------------|------------------|
    ------------------|------------------|------------------|------------------|
    ------------------|------------------|------------------|------------------|
    
                                                                                
    ------------------|------------------|------------------|------------------|
    ------------------|------------------|------------------|------------------|
    ------------------|------------------|------------------|------------------|
    ------------------|------------------|------------------|------------------|
    ------------------|------------------|------------------|------------------|
    ------------------|------------------|------------------|------------------|
    
                                                                                
    ------------------|------------------|------------------|------------------|
    ------------------|------------------|------------------|------------------|
    ------------------|------------------|------------------|------------------|
    ------------------|------------------|------------------|------------------|
    ------------------|------------------|------------------|------------------|
    ------------------|------------------|------------------|------------------|
    
                                                                                
    ------------------|------------------|------------------|------------------|
    ------------------|------------------|------------------|------------------|
    ------------------|------------------|------------------|------------------|
    ------------------|------------------|------------------|------------------|
    ------------------|------------------|------------------|------------------|
    ------------------|------------------|------------------|------------------|
    
                                                                                
    ------------------|------------------|------------------|------------------|
    ------------------|------------------|------------------|------------------|
    ------------------|------------------|------------------|------------------|
    ------------------|------------------|------------------|------------------|
    ------------------|------------------|------------------|------------------|
    ------------------|------------------|------------------|------------------|
    
                                                        
    --------------------------------|------------------|
    --------------------------------|------------------|
    --------------------------------|------------------|
    --------------------------------|------------------|
    --1--1--1----1--1--1--1--1------|------------------|
    --------------------------------|------------------|
    
                                                        
    --------------------------------|------------------|
    --------------------------------|------------------|
    --------------------------------|------------------|
    --------------------------------|------------------|
    --1--1--1----1--1--1--1--1------|------------------|
    --------------------------------|------------------|
    
                                                        
    --------------------------------|------------------|
    --------------------------------|------------------|
    --------------------------------|------------------|
    --------------------------------|------------------|
    --------------------------------|------------------|
    --1--1--1----1--1--1--1--1------|------------------|
    
                                                        
    --------------------------------|------------------|
    --------------------------------|------------------|
    --------------------------------|------------------|
    --------------------------------|------------------|
    --------------------------------|------------------|
    --1--1--1----1--1--1--1--1------|------------------|
    
                                                        
    --------------------------------|------------------|
    --------------------------------|------------------|
    --------------------------------|------------------|
    --------------------------------|------------------|
    --1--1--1----1--1--1--1--1------|------------------|
    --------------------------------|------------------|
    
    
    Узнай ВСЕ о своем друге в ВК или FB
    --------------------------------|------------------| --------------------------------|------------------| --------------------------------|------------------| --------------------------------|------------------| --1--1--1----1--1--1--1--1------|------------------| --------------------------------|------------------| --------------------------------|------------------| --------------------------------|------------------| --------------------------------|------------------| --------------------------------|------------------| --------------------------------|------------------| --6--6--6----6--6--6--6--6------|------------------| --------------------------------|------------------|-------------------| --------------------------------|------------------|-------------------| --------------------------------|------------------|--2----------------| --------------------------------|------------------|--0----------------| --------------------------------|------------------|-------------------| --3--3--3----3--3--3--3--3------|------------------|-------------------| ------------------|------------------|------------------|------------------| ------------------|------------------|------------------|------------------| ------------------|------------------|------------------|------------------| ------------------|------------------|------------------|------------------| ------------------|------------------|------------------|------------------| ------------------|------------------|------------------|------------------| ------------------|------------------|------------------|------------------| ------------------|------------------|------------------|------------------| ------------------|------------------|------------------|------------------| ------------------|------------------|------------------|------------------| ------------------|------------------|------------------|------------------| ------------------|------------------|------------------|------------------| ------------------|------------------|------------------|------------------| ------------------|------------------|------------------|------------------| ------------------|------------------|------------------|------------------| ------------------|------------------|------------------|------------------| ------------------|------------------|------------------|------------------| ------------------|------------------|------------------|------------------| ------------------|------------------|------------------|------------------| ------------------|------------------|------------------|------------------| ------------------|------------------|------------------|------------------| ------------------|------------------|------------------|------------------| ------------------|------------------|------------------|------------------| ------------------|------------------|------------------|------------------| ------------------|------------------|------------------|------------------| ------------------|------------------|------------------|------------------| ------------------|------------------|------------------|------------------| ------------------|------------------|------------------|------------------| ------------------|------------------|------------------|------------------| ------------------|------------------|------------------|------------------| ------------------|------------------|------------------|------------------| ------------------|------------------|------------------|------------------| ------------------|------------------|------------------|------------------| ------------------|------------------|------------------|------------------| ------------------|------------------|------------------|------------------| ------------------|------------------|------------------|------------------| --8--------10----------8-----|----------------------|---------3------5-----| -----8--8------10--10--------|---------5------6-----|--6-------------------| -----------------------------|--7-------------------|----------------------| -----------------------------|----------------------|----------------------| -----------------------------|----------------------|----------------------| -----------------------------|----------------------|----------------------| --10------10------8-----|-------------------|--6-5-3-----8-6-5--------| ------------------------|--8----------------|-------------------------| ------------------------|-------------------|-------------------------| ------------------------|-------------------|-------------------------| ------------------------|-------------------|-------------------------| ------------------------|-------------------|-------------------------| --13-12-10-8-10-12-10----------|-----------------------|-------------------| -------------------------------|-----------------6-----|-------------------| -------------------------------|----------7------------|-------------------| -------------------------------|--10-------------------|-------------------| -------------------------------|-----------------------|--3----------------| -------------------------------|-----------------------|--1----------------| ------------------|-------------------|-------------------|-------------------| ------------------|-------------------|-------------------|-------------------| ------------------|-------------------|-------------------|-------------------| ------------------|--6----------------|-------------------|--3----------------| ------------------|--4----------------|--6----------------|--1----------------| ------------------|-------------------|--4----------------|-------------------| -------------------|-------------------|-------------------|------------------| -------------------|-------------------|-------------------|------------------| -------------------|--1----------------|-------------------|------------------| -------------------|-------------------|-------------------|------------------| --3----------------|--4----------------|--3----------------|------------------| --1----------------|-------------------|--1----------------|------------------| ------------------|-------------------|-------------------|-------------------| ------------------|-------------------|-------------------|-------------------| ------------------|-------------------|--3----------------|-------------------| ------------------|--6----------------|--1----------------|--1----------------| ------------------|--4----------------|-------------------|-------------------| ------------------|-------------------|-------------------|--4----------------| -------------------|-------------------|------------------|| -------------------|-------------------|------------------|| --3----------------|-------------------|------------------|| --1----------------|-------------------|------------------|| -------------------|--3----------------|------------------|| -------------------|--1----------------|------------------||

    лекарство в аптеке
    список лекарств






    О сайтеАккордыХит-парадПоискУроки ФорумыИщу песню
    ПрограммыСвежачок-сПодпискаСтатьи
    Яндекс.Метрика