Басовая табулатура Nightwish | Sleeping Sun гитара табулатуры уроки тексты песен Nightwish текст lyrics песня аккорды песни ноты нота электрогитара струна  
   А Б В Г Д Е Ж З И К Л М Н О П Р С Т У Ф Х Ч Ш Ы Э Ю Я       Разные песни
1-9 A B C D E F G H I J K L M N O P Q R S T U V W Y Z      Все исполнители in english

    



группа Nightwish, Басовая табулатура песни Sleeping Sun

Работа в Европе для граждан РФ, Украины, СНГ

  • минимальная зарплата $500.
  • виза и контракт на полгода, возможно продление
  • проживание оплачивает работодатель
  • нужен только загранпаспорт
  • оформление 190 €
  • данное предложение - отличная возможность эмигрировать в Европу и закрепиться здесь навсегда.

  • Мы свяжемся с Вами по WhatsApp или Viber и ответим на любые вопросы.
    на нашем сайте можно почитать подробнее »

    Группа: Nightwish - другие аккорды (414),   о группе (12 статей),   диски (6),   фотографии (25)
    Басовая табулатура песни: Sleeping Sun
    Просмотров: 847
    Подобрал: Forever (forever@akkords.ru)




        
                                     Sleeping Sun                                   
    
                                                      
    Bass
    
                                                                                 
    G||------|------|-------------------|-------------------|-------------------|
    D||------|------|--3----------------|-------------------|-------------------|
    A||------|------|-------------------|--3----------------|--1----------------|
    E||------|------|-------------------|-------------------|-------------------|
    
                                                                                  
    -------------------|-------------------|------------------|------------------|
    -------------------|-------------------|------------------|------------------|
    -------------------|-------------------|------------------|------------------|
    --3----------------|--1----------------|------------------|------------------|
    
                                                                                  
    ------------------|------------------|-------------------|-------------------|
    ------------------|------------------|-------------------|-------------------|
    ------------------|------------------|--3----------------|----------3--------|
    ------------------|------------------|-------------------|-------------------|
    
                                                                 
    -------------------|--------------------|-------------------|
    -------------------|--------------------|-------------------|
    --3----------------|----------3------3--|-------------------|
    -------------------|--------------------|--1----------------|
    
                                                                                    
    -------------------|-------------------|-------------------|-------------------|
    -------------------|-------------------|-------------------|-------------------|
    ----------------3--|-------------------|-------------------|--3----------------|
    -------------------|--1----------------|----------------3--|-------------------|
    
                                                                                    
    -------------------|-------------------|-------------------|-------------------|
    -------------------|-------------------|-------------------|-------------------|
    ----------------3--|--3----------------|-------------------|--1----------------|
    -------------------|-------------------|----------------3--|-------------------|
    
                                                                                    
    -------------------|-------------------|-------------------|-------------------|
    -------------------|-------------------|-------------------|-------------------|
    -------------------|-------------------|-------------------|-------------------|
    ----------------1--|--1----------------|----------------1--|--3----------------|
    
                                                                 
    -------------------|-------------------|--------------------|
    -------------------|-------------------|--------------------|
    --------------3----|-------------------|--------------------|
    -------------------|--1----------------|--1--1--------------|
    
                                                                 
    -------------------|--------------------|-------------------|
    -------------------|--------------------|-------------------|
    --1----------------|--------------------|--3----------------|
    -------------------|--1--1--------------|-------------------|
    
                                                                   
    --------------------|-------------------|---------------------|
    --------------------|-------------------|---------------------|
    --------------------|--1----------------|---------------------|
    --3--3--------------|-------------------|--1--1----------0----|
    
                                                                 
    -------------------|--------------------|-------------------|
    -------------------|--------------------|-------------------|
    --3----------------|--3--3--------------|-------------------|
    -------------------|--------------------|--1----------------|
    
                                                                 
    --------------------|-------------------|-------------------|
    --------------------|-------------------|-------------------|
    --------------------|-------------------|-------------------|
    --3--3--------------|--1----------------|--3----------------|
    
                                                                              
    -------------------|------------------------------|----------------------|
    -------------------|------------------------------|----------------------|
    -------------------|--1-1-1--1-1-1--1-1-1--1-1-1--|------1--1------------|
    --0----------------|------------------------------|------------3--3------|
    
                                                          
    ------------------------------|----------------------|
    ------------------------------|----------------------|
    --1-1-1--1-1-1--1-1-1--1-1-1--|------1--1------------|
    ------------------------------|------------3--3------|
    
                                                          
    ------------------------------|----------------------|
    ------------------------------|----------------------|
    ------------------------------|------1--1------------|
    --1-1-1--1-1-1--1-1-1--1-1-1--|------------3--3------|
    
                                                          
    ------------------------------|----------------------|
    ------------------------------|----------------------|
    ------------------------------|------1--1------------|
    --1-1-1--1-1-1--1-1-1--1-1-1--|------------3--3------|
    
                                                          
    ------------------------------|----------------------|
    ------------------------------|----------------------|
    --1-1-1--1-1-1--1-1-1--1-1-1--|------1--1------------|
    ------------------------------|------------3--3------|
    
                                                          
    ------------------------------|----------------------|
    ------------------------------|----------------------|
    --1-1-1--1-1-1--1-1-1--1-1-1--|------1--1------------|
    ------------------------------|------------3--3------|
    
    
    Узнай ВСЕ о своем друге в ВК или FB
    ------------------------------|----------------------| ------------------------------|----------------------| --1-1-1--1-1-1--1-1-1--1-1-1--|------1--1------------| ------------------------------|------------3--3------| ------------------------------|----------------------|-------------------| ------------------------------|----------------------|-------------------| ------------------------------|------1--1------------|-------------------| --3-3-3--3-3-3--3-3-3--3-3-3--|------------3--3------|--0----------------| -------------------|----------------------|---------------------| -------------------|----------------------|---------------------| --------------3----|----------------------|---------------------| -------------------|--1----1----0----0----|--1----0----1--------| ---------------------|---------------------|---------------------| ---------------------|---------------------|---------------------| ---------------------|---------------------|---------------------| --1------1--0--------|--1------1--1--------|--3------3--3--------| ---------------------|---------------------|----------------------| ---------------------|---------------------|----------------------| --3------3--3--------|--1------1--1--------|----------------------| ---------------------|---------------------|--1------1--1----0----| ---------------------|---------------------|---------------------| ---------------------|---------------------|---------------------| --1------1--1--------|--0------0--0--------|--1------1--1--------| ---------------------|---------------------|---------------------| ---------------------|---------------------|---------------------| ---------------------|---------------------|---------------------| --3------3--3--------|---------------------|--3------3--3--------| ---------------------|--1------1--1--------|---------------------| -------------------|-------------------|--------------------| -------------------|-------------------|----------0----0----| -------------------|-------------------|--------------------| --1----------------|--1----------------|--------------------| --------------------|----------------------|--------------------| --------------------|----------------------|--------------------| --3--------3--------|--1--------1--1--1----|--3--------3--------| --------------------|----------------------|--------------------| --------------------|--------------------|----------------------| --0--------0--------|--------------------|----------------------| --------------------|--1--------1--------|------------3--3------| --------------------|--------------------|------1--1------------| -------------------|-------------------|-------------------|-------------------| -------------------|--3----------------|--0----------------|-------------------| --3----------------|-------------------|-------------------|--1----------------| -------------------|-------------------|-------------------|-------------------| ------------------------|---------------------|---------------------| ------------------------|---------0--0--------|---------0--0--------| ------------------------|---------------------|---------------------| --1-----1--1--1--1------|--3------------------|--3------------------| -------------------|--------------------|--------------------| -------------------|--------------------|--------------------| --1----------------|--------------------|--------------------| -------------------|--1--------1--------|--1--------1--------| --------------------|--------------------|--------------------| --------------------|--------------------|--------------------| --4--------4--------|--------------------|--1--------1--------| --------------------|--4--------4--------|--------------------| --------------------|--------------------|--------------------| --------------------|--------------------|--------------------| --------------------|--4--------4--------|--------------------| --1--------1--------|--------------------|--1--------1--------| --------------------|--------------------|--------------------| --------------------|--------------------|--------------------| --------------------|--------------------|--4--------4--------| --1--------1--------|--1--------1--------|--------------------| --------------------|--------------------|--------------------| --1--------1--------|--------------------|--1--------1--------| --------------------|--------------------|--------------------| --------------------|--4--------4--------|--------------------| -------------------|------------------|| -------------------|------------------|| -------------------|------------------|| --1----------------|------------------||

    искать в аптеке
    список лекарств






    О сайтеАккордыХит-парадПоискУроки ФорумыИщу песню
    ПрограммыСвежачок-сПодпискаСтатьи
    Яндекс.Метрика