Табулатура Nightwish | She Is My Sin  (2) гитара табулатуры уроки тексты песен Nightwish текст lyrics песня аккорды песни ноты нота электрогитара струна  
   А Б В Г Д Е Ж З И К Л М Н О П Р С Т У Ф Х Ч Ш Ы Э Ю Я       Разные песни
1-9 A B C D E F G H I J K L M N O P Q R S T U V W Y Z      Все исполнители in english

    



группа Nightwish, Табулатура песни She Is My Sin (2)

Работа в Европе для граждан РФ, Украины, СНГ

  • минимальная зарплата $500.
  • виза и контракт на полгода, возможно продление
  • проживание оплачивает работодатель
  • нужен только загранпаспорт
  • оформление 190 €
  • данное предложение - отличная возможность эмигрировать в Европу и закрепиться здесь навсегда.

  • Мы свяжемся с Вами по WhatsApp или Viber и ответим на любые вопросы.
    на нашем сайте можно почитать подробнее »

    Группа: Nightwish - другие аккорды (414),   о группе (12 статей),   диски (6),   фотографии (25)
    Табулатура песни: She Is My Sin (2)
    Просмотров: 1225
    Подобрал: Forever (forever@akkords.ru)




        
                                    She is my sin                                   
    
                                                             
    E||--3--------3--4--------4--|--3--------3--1--6--1--6--|
    B||-----1--1--------1--4-----|-----1--4-----------------|
    G||--------------------------|--------------------------|
    D||--------------------------|--------------------------|
    A||--------------------------|--------------------------|
    E||--------------------------|--------------------------|
    
                                                           
    --3--------3--4--------4--|--3--------3--3-----4-3-1--|
    -----1--1--------1--4-----|-----1--4--------1---------|
    --------------------------|---------------------------|
    --------------------------|---------------------------|
    --------------------------|---------------------------|
    --------------------------|---------------------------|
    
                                                          
    --3--------3--4--------4--|--3--------3--1--6--1--6--|
    -----1--1--------1--4-----|-----1--4-----------------|
    --------------------------|--------------------------|
    --------------------------|--------------------------|
    --------------------------|--------------------------|
    --------------------------|--------------------------|
    
                                                                   
    --3--------3--4--------4--|--------|--3--------3--4--------4--|
    -----1--1--------1--4-----|--1--4--|-----1--1--------1--4-----|
    --------------------------|--------|--------------------------|
    --------------------------|--------|--------------------------|
    --------------------------|--------|--------------------------|
    --------------------------|--------|--------------------------|
    
                                                          
    --3--------3--4--------4--|--3--------3--1--6--1--6--|
    -----1--1--------1--4-----|-----1--4-----------------|
    --------------------------|--------------------------|
    --------------------------|--------------------------|
    --------------------------|--------------------------|
    --------------------------|--------------------------|
    
                                                           
    --3--------3--4--------4--|--3--------3--3-----4-3-1--|
    -----1--1--------1--4-----|-----1--4--------1---------|
    --------------------------|---------------------------|
    --------------------------|---------------------------|
    --------------------------|---------------------------|
    --------------------------|---------------------------|
    
                                                          
    --3--------3--4--------4--|--3--------3--1--6--1--6--|
    -----1--1--------1--4-----|-----1--4-----------------|
    --------------------------|--------------------------|
    --------------------------|--------------------------|
    --------------------------|--------------------------|
    --------------------------|--------------------------|
    
                                                          
    --3--------3--4--------4--|--3--------3--4--------4--|
    -----1--1--------1--4-----|-----1--1--------1--4-----|
    --------------------------|--------------------------|
    --------------------------|--------------------------|
    --------------------------|--------------------------|
    --------------------------|--------------------------|
    
                                                          
    --3--------3--4--------4--|--3--------3--1--6--1--6--|
    -----1--1--------1--4-----|-----1--4-----------------|
    --------------------------|--------------------------|
    --------------------------|--------------------------|
    --------------------------|--------------------------|
    --------------------------|--------------------------|
    
                                                           
    --3--------3--4--------4--|--3--------3--3-----4-3-1--|
    -----1--1--------1--4-----|-----1--4--------1---------|
    --------------------------|---------------------------|
    --------------------------|---------------------------|
    --------------------------|---------------------------|
    --------------------------|---------------------------|
    
                                                          
    --3--------3--4--------4--|--3--------3--1--6--1--6--|
    -----1--1--------1--4-----|-----1--4-----------------|
    --------------------------|--------------------------|
    --------------------------|--------------------------|
    --------------------------|--------------------------|
    --------------------------|--------------------------|
    
                                                            A5                 
    --3--------3--4--------4--|--3--------3--4--------4--|--------------------|
    -----1--1--------1--4-----|-----1--1--------1--4-----|--10----------------|
    --------------------------|--------------------------|--9-----------------|
    --------------------------|--------------------------|--7-----------------|
    --------------------------|--------------------------|--------------------|
    --------------------------|--------------------------|--------------------|
    
                         E5                  C5        G5         
    ------------------|-------------------|----------------------|
    ------------------|-------------------|----------------------|
    ------------------|--9----------------|------------12--------|
    ------------------|--9----------------|--10--------12--------|
    ------------------|--7----------------|--10--------10--------|
    ------------------|-------------------|--8-------------------|
    
                                                              A5                 
    -----5--5-----------5-----|-----5--8-----10-----10-----|--------------------|
    --5--------5--6--3-----6--|--5--------5------8------8--|--10----------------|
    --------------------------|----------------------------|--9-----------------|
    --------------------------|----------------------------|--7-----------------|
    --------------------------|----------------------------|--------------------|
    --------------------------|----------------------------|--------------------|
    
                         D5                   A5        G5         
    ------------------|--------------------|----------------------|
    ------------------|--------------------|----------------------|
    ------------------|--------------------|--14--------12--------|
    ------------------|--12----------------|--14--------12--------|
    ------------------|--12----------------|--12--------10--------|
    ------------------|--10----------------|----------------------|
    
      F5                                      A5                                    
    --------------------|------------------|--------------------|------------------|
    --------------------|------------------|--10----------------|------------------|
    --------------------|------------------|--9-----------------|------------------|
    --15----------------|------------------|--7-----------------|------------------|
    --15----------------|------------------|--------------------|------------------|
    --13----------------|------------------|--------------------|------------------|
    
      E5                  C5        G5                                    
    -------------------|----------------------|-----5--5-----------5-----|
    -------------------|----------------------|--5--------5--6--3-----6--|
    --9----------------|------------12--------|--------------------------|
    --9----------------|--10--------12--------|--------------------------|
    --7----------------|--10--------10--------|--------------------------|
    -------------------|--8-------------------|--------------------------|
    
                                   A5                                    
    -----5--8-----10-----10-----|--------------------|------------------|
    --5--------5------8------8--|--10----------------|------------------|
    ----------------------------|--9-----------------|------------------|
    ----------------------------|--7-----------------|------------------|
    
    Узнай ВСЕ о своем друге в ВК или FB
    ----------------------------|--------------------|------------------| ----------------------------|--------------------|------------------| D5 A5 G5 A5 --------------------|----------------------|--------|------------------|------| --------------------|----------------------|--------|------------------|------| --------------------|--14--------12--------|--14----|------------------|------| --12----------------|--14--------12--------|--14----|------------------|------| --12----------------|--12--------10--------|--12----|------------------|------| --10----------------|----------------------|--------|------------------|------| ------------------|------------------|------------------|------------------| ------------------|------------------|------------------|------------------| ------------------|------------------|------------------|------------------| ------------------|------------------|------------------|------------------| ------------------|------------------|------------------|------------------| ------------------|------------------|------------------|------------------| ------------------|------------------|------------------|------------------| ------------------|------------------|------------------|------------------| ------------------|------------------|------------------|------------------| ------------------|------------------|------------------|------------------| ------------------|------------------|------------------|------------------| ------------------|------------------|------------------|------------------| |-------------------|------------------|------------------|------------------| |-------------------|------------------|------------------|------------------| |*------------------|------------------|------------------|------------------| |*------------------|------------------|------------------|------------------| |-------------------|------------------|------------------|------------------| |-------------------|------------------|------------------|------------------| ------------------|------------------|------------------|-------------------|| ------------------|------------------|------------------|-------------------|| ------------------|------------------|------------------|------------------*|| ------------------|------------------|------------------|------------------*|| ------------------|------------------|------------------|-------------------|| ------------------|------------------|------------------|-------------------|| -----5--5-----------5-----|-----5--8-----10-----10-----| --5--------5--6--3-----6--|--5--------5------8------8--| --------------------------|----------------------------| --------------------------|----------------------------| --------------------------|----------------------------| --------------------------|----------------------------| -----5--5-----------5-----|-----5--8--------5--13-12-10--| --5--------5--6--3-----6--|--5--------5--5---------------| --------------------------|------------------------------| --------------------------|------------------------------| --------------------------|------------------------------| --------------------------|------------------------------| -----5--5-----------5-----|-----5--8-----10-----10-----| --5--------5--6--3-----6--|--5--------5------8------8--| --------------------------|----------------------------| --------------------------|----------------------------| --------------------------|----------------------------| --------------------------|----------------------------| A5 -----5--5-----------5-----|--------5-----------5-----|--------------------| --5--------5--6--3-----6--|--5--3-----3--5--3-----6--|--10----------------| --------------------------|--------------------------|--9-----------------| --------------------------|--------------------------|--7-----------------| --------------------------|--------------------------|--------------------| --------------------------|--------------------------|--------------------| E5 C5 G5 ------------------|-------------------|----------------------| ------------------|-------------------|----------------------| ------------------|--9----------------|------------12--------| ------------------|--9----------------|--10--------12--------| ------------------|--7----------------|--10--------10--------| ------------------|-------------------|--8-------------------| A5 -----5--5-----------5-----|-----5--8-----10-----10-----|--------------------| --5--------5--6--3-----6--|--5--------5------8------8--|--10----------------| --------------------------|----------------------------|--9-----------------| --------------------------|----------------------------|--7-----------------| --------------------------|----------------------------|--------------------| --------------------------|----------------------------|--------------------| D5 A5 G5 A5 ------------------|--------------------|----------------------|--------| ------------------|--------------------|----------------------|--------| ------------------|--------------------|--14--------12--------|--14----| ------------------|--12----------------|--14--------12--------|--14----| ------------------|--12----------------|--12--------10--------|--12----| ------------------|--10----------------|----------------------|--------| ------------------|------|------------------|------------------| ------------------|------|------------------|------------------| ------------------|------|------------------|------------------| ------------------|------|------------------|------------------| ------------------|------|------------------|------------------| ------------------|------|------------------|------------------| ------------------|------------------|------------------|------------------| ------------------|------------------|------------------|------------------| ------------------|------------------|------------------|------------------| ------------------|------------------|------------------|------------------| ------------------|------------------|------------------|------------------| ------------------|------------------|------------------|------------------| ------------------|------------------||-------------------|------------------| ------------------|------------------||-------------------|------------------| ------------------|------------------||*------------------|------------------| ------------------|------------------||*------------------|------------------| ------------------|------------------||-------------------|------------------| ------------------|------------------||-------------------|------------------| ------------------|------------------|------------------|------------------| ------------------|------------------|------------------|------------------| ------------------|------------------|------------------|------------------| ------------------|------------------|------------------|------------------| ------------------|------------------|------------------|------------------| ------------------|------------------|------------------|------------------| ------------------|-------------------|| ------------------|-------------------|| ------------------|------------------*|| ------------------|------------------*|| ------------------|-------------------|| ------------------|-------------------||

    поиск лекарств
    список лекарств






    О сайтеАккордыХит-парадПоискУроки ФорумыИщу песню
    ПрограммыСвежачок-сПодпискаСтатьи
    Яндекс.Метрика