Табулатура Nightwish | Over The Hills And Far Away гитара табулатуры уроки тексты песен Nightwish текст lyrics песня аккорды песни ноты нота электрогитара струна  
   А Б В Г Д Е Ж З И К Л М Н О П Р С Т У Ф Х Ч Ш Ы Э Ю Я       Разные песни
1-9 A B C D E F G H I J K L M N O P Q R S T U V W Y Z      Все исполнители in english

    



группа Nightwish, Табулатура песни Over The Hills And Far Away

Работа в Европе для граждан РФ, Украины, СНГ

  • минимальная зарплата $500.
  • виза и контракт на полгода, возможно продление
  • проживание оплачивает работодатель
  • нужен только загранпаспорт
  • оформление 190 €
  • данное предложение - отличная возможность эмигрировать в Европу и закрепиться здесь навсегда.

  • Мы свяжемся с Вами по WhatsApp или Viber и ответим на любые вопросы.
    на нашем сайте можно почитать подробнее »

    Группа: Nightwish - другие аккорды (414),   о группе (12 статей),   диски (6),   фотографии (25)
    Табулатура песни: Over The Hills And Far Away
    Просмотров: 1446
    Подобрал: Forever (forever@akkords.ru)




        
                              Over The Hills And Far Away                           
    
                                                                           Nightwish
    Solo Guitar
    Tabbed by FilipZ
    
                                              3x                       
    E||-------------------|-------------------||----------------------|
    B||-------------------|-------------------||----------------5--7--|
    G||*------------------|------------------*||----------------------|
    D||*------------------|------------------*||----------------------|
    A||-------------------|-------------------||----------------------|
    E||-------------------|-------------------||----------------------|
    
                                                                                  
    -----------5--------7--------8--7--5--|--7--------------------5--------------|
    --8--5--5-----5--5-----5--5-----------|-----5--5--5-----5--7-----8--7--5--7--|
    --------------------------------------|--------------7-----------------------|
    --------------------------------------|--------------------------------------|
    --------------------------------------|--------------------------------------|
    --------------------------------------|--------------------------------------|
    
                                                                                   
    -----------5--------7--------8--7--5--|--8--5--5--5--7--8--10--8--7--5--------|
    --8--5--5-----5--5-----5--5-----------|---------------------------------8--7--|
    --------------------------------------|---------------------------------------|
    --------------------------------------|---------------------------------------|
    --------------------------------------|---------------------------------------|
    --------------------------------------|---------------------------------------|
    
                                                                                  
    -----------5--------7--------8--7--5--|--7--------------------5--------------|
    --8--5--5-----5--5-----5--5-----------|-----5--5--5-----5--7-----8--7--5--7--|
    --------------------------------------|--------------7-----------------------|
    --------------------------------------|--------------------------------------|
    --------------------------------------|--------------------------------------|
    --------------------------------------|--------------------------------------|
    
                                                                                   
    -----------5--------7--------8--7--5--|--8--5--5--5--7--8--10--8--7--5--------|
    --8--5--5-----5--5-----5--5-----------|---------------------------------8--7--|
    --------------------------------------|---------------------------------------|
    --------------------------------------|---------------------------------------|
    --------------------------------------|---------------------------------------|
    --------------------------------------|---------------------------------------|
    
                                                               
    --------------------|------------------|------------------|
    --------------------|------------------|------------------|
    --4/---x------------|------------------|------------------|
    --------------------|------------------|------------------|
    --------------------|------------------|------------------|
    --------------------|------------------|------------------|
    
                                                                                  
    --------------------------------------|-------------------|------------------|
    --------------------------------------|-------------------|------------------|
    --7--7--7--7--7--7--7--7--7--7--7--7--|--7/---------------|------------------|
    --7--7--7--7--7--7--7--7--7--7--7--7--|--7/---------------|------------------|
    --------------------------------------|-------------------|------------------|
    --------------------------------------|-------------------|------------------|
    
                                                                     
    ------------------|------------------------||-------------------|
    ------------------|------------------------||-------------------|
    ------------------|--------9--12--9~-------||*------------------|
    ------------------|------------------------||*------------------|
    ------------------|------------------------||-------------------|
    ------------------|------------------------||-------------------|
    
                                                                                  
    ------------------|------------------|-------------------||------------------|
    ------------------|------------------|-------------------||------------------|
    ------------------|------------------|------------------*||------------------|
    ------------------|------------------|------------------*||------------------|
    ------------------|------------------|-------------------||------------------|
    ------------------|------------------|-------------------||------------------|
    
                                                                                  
    ------------------||-------------------|------------------|------------------|
    ------------------||-------------------|------------------|------------------|
    ------------------||*------------------|------------------|------------------|
    ------------------||*------------------|------------------|------------------|
    ------------------||-------------------|------------------|------------------|
    ------------------||-------------------|------------------|------------------|
    
                                                
    -------------------||----------------------|
    -------------------||----------------5--7--|
    ------------------*||----------------------|
    ------------------*||----------------------|
    -------------------||----------------------|
    -------------------||----------------------|
    
                                                                                  
    -----------5--------7--------8--7--5--|--7--------------------5--------------|
    --8--5--5-----5--5-----5--5-----------|-----5--5--5-----5--7-----8--7--5--7--|
    --------------------------------------|--------------7-----------------------|
    --------------------------------------|--------------------------------------|
    --------------------------------------|--------------------------------------|
    --------------------------------------|--------------------------------------|
    
                                                             
    ------------------|------------------|------------------|
    ------------------|------------------|------------------|
    ------------------|------------------|------------------|
    ------------------|------------------|------------------|
    ------------------|------------------|------------------|
    ------------------|------------------|------------------|
    
                                                                               
    -----------------------------------|-------------------|------------------|
    -----------------------------------|-------------------|------------------|
    -----------------------------------|-------------------|------------------|
    ------------------7----------------|-------------------|------------------|
    ------------7--9-----10--9--7------|--7~---------------|------------------|
    --------10---------------------10--|-------------------|------------------|
    
                                                                                    
    ------------------|--------------------||-------------------|------------------|
    ------------------|--------------------||-------------------|------------------|
    ------------------|-----------9--------||*------------------|------------------|
    ------------------|-----------9--------||*------------------|------------------|
    ------------------|--------7-----------||-------------------|------------------|
    ------------------|--------------------||-------------------|------------------|
    
                                                                                    
    ------------------|-------------------||------------------||-------------------|
    ------------------|-------------------||------------------||-------------------|
    ------------------|------------------*||------------------||*------------------|
    ------------------|------------------*||------------------||*------------------|
    ------------------|-------------------||------------------||-------------------|
    ------------------|-------------------||------------------||-------------------|
    
                                                                                  
    ------------------|------------------|-------------------||------------------|
    ------------------|------------------|-------------------||------------------|
    ------------------|------------------|------------------*||------------------|
    ------------------|------------------|------------------*||------------------|
    ------------------|------------------|-------------------||------------------|
    ------------------|------------------|-------------------||------------------|
    
                                                       3x                   
    ----------||-------------------|-------------------||------------------|
    ----------||-------------------|-------------------||------------------|
    ----------||*------------------|------------------*||------------------|
    ----------||*------------------|------------------*||------------------|
    ----------||-------------------|-------------------||------------------|
    ----------||-------------------|-------------------||------------------|
    
                                                                                    
    ------------------|------------------|------------------|----------------------|
    ------------------|------------------|------------------|----------------8--7--|
    ------------------|------------------|------------------|----------------------|
    ------------------|------------------|------------------|----------------------|
    ------------------|------------------|------------------|----------------------|
    ------------------|------------------|------------------|----------------------|
    
                                                                                  
    -----------5--------7--------8--7--5--|--7--------------------5--------------|
    --8--5--5-----5--5-----5--5-----------|-----5--5--5-----5--7-----8--7--5--7--|
    --------------------------------------|--------------7-----------------------|
    --------------------------------------|--------------------------------------|
    --------------------------------------|--------------------------------------|
    --------------------------------------|--------------------------------------|
    
                                                                                   
    -----------5--------7--------8--7--5--|--8--5--5--5--7--8--10--8--7--5--------|
    --8--5--5-----5--5-----5--5-----------|---------------------------------8--7--|
    --------------------------------------|---------------------------------------|
    
    Узнай ВСЕ о своем друге в ВК или FB
    --------------------------------------|---------------------------------------| --------------------------------------|---------------------------------------| --------------------------------------|---------------------------------------| ------------------|------------------|------------------|------------------| ------------------|------------------|------------------|------------------| ------------------|------------------|------------------|------------------| ------------------|------------------|------------------|------------------| ------------------|------------------|------------------|------------------| ------------------|------------------|------------------|------------------| ------12--12--12----14--12----------------------| --12------------------------15--12--------------| ------------------------------------14--12--14--| ------------------------------------------------| ------------------------------------------------| ------------------------------------------------| ------12--12--12----14--12----------------| --12------------------------15--12--15----| ------------------------------------------| ------------------------------------------| ------------------------------------------| ------------------------------------------| ------12--12--12----14--15--14--12--14--12------| --12----------------------------------------15--| ------------------------------------------------| ------------------------------------------------| ------------------------------------------------| ------------------------------------------------| --12----------------------------------------------| ------15--12--15--12------12----------------------| ----------------------14------14--12--11----------| ------------------------------------------14--12--| --------------------------------------------------| --------------------------------------------------| --3--0--0--5--0--0--7--0--0--8--0--0--|--12--0--0--0--0--0-------------| --------------------------------------|---------------------3/-3--3~---| --------------------------------------|--------------------------------| --------------------------------------|--------------------------------| --------------------------------------|--------------------------------| --------------------------------------|--------------------------------| --12h0-12h0-12h0-10h0-10h0-10h0-12h0-12h0-12h0-10-0-10-0-10-0-| --------------------------------------------------------------| --------------------------------------------------------------| --------------------------------------------------------------| --------------------------------------------------------------| --------------------------------------------------------------| --12h10----12h14h12-10-------------------------| --------12-------------12h10-------------------| -----------------------------12h11h9-----------| -------------------------------------12~-------| -----------------------------------------------| -----------------------------------------------| --------------------------------------------------| --------------------------------------------------| --12----------14----------12----------14----------| ------14--14------14--14------14--14------14--14--| --------------------------------------------------| --------------------------------------------------| ------------------------------| --------12----15----15~-------| --12--------------------------| ------------------------------| ------------------------------| ------------------------------| --12-12-12-12-14-14-14-14-15-15-15-15-17-17-17-17-19-19--19-19-22-22-22-22-| ---------------------------------------------------------------------------| ---------------------------------------------------------------------------| ---------------------------------------------------------------------------| ---------------------------------------------------------------------------| ---------------------------------------------------------------------------| --22r---------------||-------------------|------------------|------------------| --------------------||-------------------|------------------|------------------| --------------------||*------------------|------------------|------------------| --------------------||*------------------|------------------|------------------| --------------------||-------------------|------------------|------------------| --------------------||-------------------|------------------|------------------| -------------------||------------------||-------------------|------------------| -------------------||------------------||-------------------|------------------| ------------------*||------------------||*------------------|------------------| ------------------*||------------------||*------------------|------------------| -------------------||------------------||-------------------|------------------| -------------------||------------------||-------------------|------------------| 3x ------------------|-------------------||-----2----4----4h5---| ------------------|-------------------||--2------------------| ------------------|------------------*||---------------------| ------------------|------------------*||---------------------| ------------------|-------------------||---------------------| ------------------|-------------------||---------------------| --4-4-4-4-4h-5--4-------|----|--4h-5--7--7------2----| -------------------5----|----|-----------------------| ------------------------|----|-----------------------| ------------------------|----|-----------------------| ------------------------|----|-----------------------| ------------------------|----|-----------------------| ----5h2-4h2---2-5h2-4-2----2h5-|--4h2----2--5h2-4h2----5h2--4h| ------------5-----------5------|-------5------------5---------| -------------------------------|------------------------------| -------------------------------|------------------------------| -------------------------------|------------------------------| -------------------------------|------------------------------| --2----2-5h2-4h2---2-----------|--------------------------------| ----5------------5----5--5h2---|--------------------------------| -----------------------------4h|--2--4h6h4h2--------------------| -------------------------------|-------------4h2-------------4--| -------------------------------|-----------------4-0-2-4-0-2----| -------------------------------|--------------------------------| ----------------------------|-----------------------|-------------------------| ----------------------------|-----------------------|-------------------------| ----2----2/-4-4h6-4---------|--7----9----9h-10------|----9h-10----9h-9h-7-----| --4----4------------4----6--|-----------------------|----------------------9--| ----------------------------|-----------------------|-------------------------| ----------------------------|-----------------------|-------------------------| -----------------------------|------------------------------| ------------------------9--9h|--10--9--9h10---9h9h7---------| ----6--6-6-6-6-7-9----9------|----------------------9---9-7-| --------------------9--------|------------------------------| -----------------------------|------------------------------| -----------------------------|------------------------------| ----------------------------|-------------------------|------------------|| --------------7-------------|-------------------------|------------------|| --6-----4h6-4-----4h5-4--4--|-------------------------|------------------|| ----9-----------------------|--2--4---4--2-----4--6---|--7--6---9--------|| ----------------------------|---------------4---------|------------------|| ----------------------------|-------------------------|------------------||

    найти лекарство
    список лекарств

    Бензогенераторы сварог

    Бензогенераторы цены! Цены ниже рыночных! Широкий ассортимент! Гарантия

    uralenergosnab66.ru








    О сайтеАккордыХит-парадПоискУроки ФорумыИщу песню
    ПрограммыСвежачок-сПодпискаСтатьи
    Яндекс.Метрика