Табулатура Nightwish | Over The Hills And Far Away  (2) гитара табулатуры уроки тексты песен Nightwish текст lyrics песня аккорды песни ноты нота электрогитара струна  
   А Б В Г Д Е Ж З И К Л М Н О П Р С Т У Ф Х Ч Ш Ы Э Ю Я       Разные песни
1-9 A B C D E F G H I J K L M N O P Q R S T U V W Y Z      Все исполнители in english

    



группа Nightwish, Табулатура песни Over The Hills And Far Away (2)

Работа в Европе для граждан РФ, Украины, СНГ

  • минимальная зарплата $500.
  • виза и контракт на полгода, возможно продление
  • проживание оплачивает работодатель
  • нужен только загранпаспорт
  • оформление 190 €
  • данное предложение - отличная возможность эмигрировать в Европу и закрепиться здесь навсегда.

  • Мы свяжемся с Вами по WhatsApp или Viber и ответим на любые вопросы.
    на нашем сайте можно почитать подробнее »

    Группа: Nightwish - другие аккорды (414),   о группе (12 статей),   диски (6),   фотографии (25)
    Табулатура песни: Over The Hills And Far Away (2)
    Просмотров: 1432
    Подобрал: Forever (forever@akkords.ru)




        
                              Over The Hills And Far Away                           
    
                                                                           Nightwish
    Rhytm Guitar
    Tabbed by FilipZ
    
                                              3x                   
    E||-------------------|-------------------||------------------|
    B||-------------------|-------------------||------------------|
    G||*------------------|------------------*||------------------|
    D||*------------------|------------------*||------------------|
    A||-------------------|-------------------||------------------|
    E||-------------------|-------------------||------------------|
    
                                                                    
    ----------------------|--------------------|-------------------|
    ----------------------|--------------------|-------------------|
    ----------------------|--------------------|-------------------|
    --2----------------2--|--2------------2----|--2----------------|
    --2----------------2--|--2------------2----|--2----------------|
    --0----------------0--|--0------------0----|--0----------------|
    
                                                                 
    ------------------|--------------------|--------------------|
    ------------------|--------------------|--------------------|
    ------------------|--------------------|--------------------|
    ------------------|--2------------2----|--2------------2----|
    ------------------|--2------------2----|--2------------2----|
    ------------------|--0------------0----|--0------------0----|
    
                                                                
    --------------------|--------------------------------------|
    --------------------|--------------------------------------|
    --------------------|--------------------------------------|
    --2------------2----|--------------------------------------|
    --2------------2----|--2--2--2--2--2--2--2--2--2--2--2--2--|
    --0------------0----|--0--0--0--0--0--0--0--0--0--0--0--0--|
    
                                                                                  
    --------------------------------------|--------------------------------------|
    --------------------------------------|--------------------------------------|
    --------------------------------------|--------------------------------------|
    --------------------------------------|--------------------------------------|
    --2--2--2--2--2--2--2--2--2--2--2--2--|--5--5--5--5--5--5--5--5--5--5--5--5--|
    --0--0--0--0--0--0--0--0--0--0--0--0--|--3--3--3--3--3--3--3--3--3--3--3--3--|
    
                                                                                  
    --------------------------------------|--------------------------------------|
    --------------------------------------|--------------------------------------|
    --------------------------------------|--------------------------------------|
    --------------------------------------|--7--7--7--7--7--7--7--7--7--7--7--7--|
    --2--2--2--2--2--2--2--2--2--2--2--2--|--5--5--5--5--5--5--5--5--5--5--5--5--|
    --0--0--0--0--0--0--0--0--0--0--0--0--|--------------------------------------|
    
                                                                                  
    --------------------------------------|--------------------------------------|
    --------------------------------------|--------------------------------------|
    --------------------------------------|--------------------------------------|
    --------------------------------------|--------------------------------------|
    --2--2--2--2--2--2--2--2--2--2--2--2--|--5--5--5--5--5--5--5--5--5-----------|
    --0--0--0--0--0--0--0--0--0--0--0--0--|--3--3--3--3--3--3--3--3--3--3--5--7--|
    
                                                                                  
    --------------------------------------|--------------------------------------|
    --------------------------------------|--------------------------------------|
    --------------------------------------|--------------------------------------|
    --7--7--7--7--7--7--7--7--7--7--7--7--|--9--9--9--9--9--9--9--9--9--9--9--9--|
    --5--5--5--5--5--5--5--5--5--5--5--5--|--7--7--7--7--7--7--7--7--7--7--7--7--|
    --------------------------------------|--------------------------------------|
    
                                                                                    
    |---------------------------------------|--------------------------------------|
    |---------------------------------------|--------------------------------------|
    |*--------------------------------------|--------------------------------------|
    |*--5--5--5--5--5--5--5--5--5--5--5--5--|--5--5--5--5--5--5--5--5--5--5--5--5--|
    |---3--3--3--3--3--3--3--3--3--3--3--3--|--3--3--3--3--3--3--3--3--3--3--3--3--|
    |---------------------------------------|--------------------------------------|
    
                                                                                    
    --------------------------------------|---------------------------------------||
    --------------------------------------|---------------------------------------||
    --------------------------------------|--------------------------------------*||
    --7--7--7--7--7--7--7--7--7--7--7--7--|--7--7--7--7--7--7--7--7--7--7--7--7--*||
    --5--5--5--5--5--5--5--5--5--5--5--5--|--5--5--5--5--5--5--5--5--5--5--5--5---||
    --------------------------------------|---------------------------------------||
    
                                                                
    --------------------------------------|--------------------|
    --------------------------------------|--3-----------------|
    -----------------------------------7--|--4------------2----|
    --7--7--7--7--7--7--7--7--7--7--7--7--|--4------------0----|
    --5--5--5--5--5--5--5--5--5--5--5--5--|--2------------0----|
    --------------------------------------|--------------------|
    
                                                                     
    |---------------------|--------------------|--------------------|
    |---------------------|--------------------|--------------------|
    |*--------------------|--7--------9--------|--7-----------------|
    |*--2--------5--------|--7--------9--------|--7--------5--------|
    |---2--------5--------|--5--------7--------|--5--------5--------|
    |---0--------3--------|--------------------|-----------3--------|
    
                                                                   
    ---------------------||--------------------|------------------|
    ---------------------||--------------------|------------------|
    --5--------7--------*||--5--------7--------|------------------|
    --5--------7--------*||--5--------7--------|------------------|
    --3--------5---------||--3--------5--------|------------------|
    ---------------------||--------------------|------------------|
    
                                                          
    ------------------|----------------------------------|
    ------------------|----------------------------------|
    ------------------|----------------------------------|
    ------------------|--2----2--2--2----2----2--2--2----|
    ------------------|--2----2--2--2----2----2--2--2----|
    ------------------|--0----0--0--0----0----0--0--0----|
    
                                                                          
    ----------------------------------|----------------------------------|
    ----------------------------------|----------------------------------|
    ----------------------------------|----------------------------------|
    --5----5--5--5----5----5--5--5----|--2----2--2--2----2----2--2--2----|
    --5----5--5--5----5----5--5--5----|--2----2--2--2----2----2--2--2----|
    --3----3--3--3----3----3--3--3----|--0----0--0--0----0----0--0--0----|
    
                                                                          
    ----------------------------------|----------------------------------|
    ----------------------------------|----------------------------------|
    --7----7--7--7----7----7--7--7----|----------------------------------|
    --7----7--7--7----7----7--7--7----|--2----2--2--2----2----2--2--2----|
    --5----5--5--5----5----5--5--5----|--2----2--2--2----2----2--2--2----|
    ----------------------------------|--0----0--0--0----0----0--0--0----|
    
                                                                          
    ----------------------------------|----------------------------------|
    ----------------------------------|----------------------------------|
    ----------------------------------|--7----7--7--7----7----7--7--7----|
    --5----5--5--5----5----5--5--5----|--7----7--7--7----7----7--7--7----|
    --5----5--5--5----5----5--5--5----|--5----5--5--5----5----5--5--5----|
    --3----3--3--3----3----3--3--3----|----------------------------------|
    
                                                                                   
    ----------------------------------||---------------------|--------------------|
    ----------------------------------||---5--------3--------|--5--------3--------|
    --9----9--9--9----9----9--9--9----||*--5--------5--------|--5--------5--------|
    --9----9--9--9----9----9--9--9----||*--5--------5--------|--5--------5--------|
    --7----7--7--7----7----7--7--7----||---3--------3--------|--3--------3--------|
    ----------------------------------||---------------------|--------------------|
    
                                                                     
    --3--------2--------|--3--------2---------||--------------------|
    --3--------3--------|--3--------3---------||--3-----------------|
    --2--------2--------|--2--------2--------*||--4------------2----|
    --0--------0--------|--0--------0--------*||--4------------0----|
    --------------------|---------------------||--2------------0----|
    --------------------|---------------------||--------------------|
    
    
    Узнай ВСЕ о своем друге в ВК или FB
    |---------------------|--------------------|--------------------| |---------------------|--------------------|--------------------| |*--------------------|--7--------9--------|--7-----------------| |*--2--------5--------|--7--------9--------|--7--------5--------| |---2--------5--------|--5--------7--------|--5--------5--------| |---0--------3--------|--------------------|-----------3--------| ---------------------||------------------------------|--------------------| ---------------------||------------------------------|--------------------| --5--------7--------*||------------------------------|--7--7--7--7--7--7--| --5--------7--------*||--2----2--2--2--5----5--5--5--|--7--7--7--7--7--7--| --3--------5---------||--2----2--2--2--5----5--5--5--|--5--5--5--5--5--5--| ---------------------||--0----0--0--0--3----3--3--3--|--------------------| 3x |-------------------|-------------------||------------------|------------------| |-------------------|-------------------||------------------|------------------| |*------------------|------------------*||------------------|------------------| |*------------------|------------------*||------------------|------------------| |-------------------|-------------------||------------------|------------------| |-------------------|-------------------||------------------|------------------| ------------------|------------------|------------------|------------------| ------------------|------------------|------------------|------------------| ------------------|------------------|------------------|------------------| ------------------|------------------|------------------|------------------| ------------------|------------------|------------------|------------------| ------------------|------------------|------------------|------------------| ------------------|------------------|------------------|-------------------| ------------------|------------------|------------------|-------------------| ------------------|------------------|------------------|-------------------| ------------------|------------------|------------------|--2----------------| ------------------|------------------|------------------|--2----------------| ------------------|------------------|------------------|--0----------------| ------------------------|-------------------|-------------------| ------------------------|-------------------|-------------------| ------------------------|-------------------|-------------------| --2--2--2--2------------|--2----------------|--2----------------| --2--2--2--2------------|--2----------------|--2----------------| --0--0--0--0------------|--0----------------|--0----------------| ------------------|------------------|------------------|------------------| ------------------|------------------|------------------|------------------| ------------------|------------------|------------------|------------------| ------------------|------------------|------------------|------------------| ------------------|------------------|------------------|------------------| ------------------|------------------|------------------|------------------| ----------------------------------|----------------------------------| ----------------------------------|----------------------------------| ----------------------------------|----------------------------------| --2----2--2--2----2----2--2--2----|--5----5--5--5----5----5--5--5----| --2----2--2--2----2----2--2--2----|--5----5--5--5----5----5--5--5----| --0----0--0--0----0----0--0--0----|--3----3--3--3----3----3--3--3----| ----------------------------------|----------------------------------| ----------------------------------|----------------------------------| ----------------------------------|--7----7--7--7----7----7--7--7----| --2----2--2--2----2----2--2--2----|--7----7--7--7----7----7--7--7----| --2----2--2--2----2----2--2--2----|--5----5--5--5----5----5--5--5----| --0----0--0--0----0----0--0--0----|----------------------------------| ----------------------------------|----------------------------------| ----------------------------------|----------------------------------| ----------------------------------|----------------------------------| --2----2--2--2----2----2--2--2----|--5----5--5--5----5----5--5--5----| --2----2--2--2----2----2--2--2----|--5----5--5--5----5----5--5--5----| --0----0--0--0----0----0--0--0----|--3----3--3--3----3----3--3--3----| ----------------------------------|----------------------------------| ----------------------------------|----------------------------------| --7----7--7--7----7----7--7--7----|--9----9--9--9----9----9--9--9----| --7----7--7--7----7----7--7--7----|--9----9--9--9----9----9--9--9----| --5----5--5--5----5----5--5--5----|--7----7--7--7----7----7--7--7----| ----------------------------------|----------------------------------| |---------------------|--------------------|--3--------2--------| |---5--------3--------|--5--------3--------|--3--------3--------| |*--5--------5--------|--5--------5--------|--2--------2--------| |*--5--------5--------|--5--------5--------|--0--------0--------| |---3--------3--------|--3--------3--------|--------------------| |---------------------|--------------------|--------------------| --3--------2---------||--------------------||---------------------| --3--------3---------||--3-----------------||---------------------| --2--------2--------*||--4------------2----||*--------------------| --0--------0--------*||--4------------0----||*--4--------7--------| ---------------------||--2------------0----||---4--------7--------| ---------------------||--------------------||---2--------5--------| 3x ---------------------|--------------------|---------------------|| ---------------------|--------------------|---------------------|| --9--------11--------|--9-----------------|--7--------9--------*|| --9--------11--------|--9--------7--------|--7--------9--------*|| --7--------9---------|--7--------7--------|--5--------7---------|| ---------------------|-----------5--------|---------------------|| -------------------|-------------------|-------------------|-------------------| -------------------|-------------------|-------------------|-------------------| -------------------|-------------------|--9----------------|-------------------| --4----------------|--7----------------|--9----------------|--7----------------| --4----------------|--7----------------|--7----------------|--7----------------| --2----------------|--5----------------|-------------------|--5----------------| -------------------|-------------------|-------------------| -------------------|-------------------|-------------------| -------------------|-------------------|-------------------| --4----------------|--7----------------|--9----------------| --4----------------|--7----------------|--9----------------| --2----------------|--5----------------|--7----------------| ----------------------|------------------------|--------------| ----------------------|------------------------|--------------| --9---------7----9----|-------7----9----11--9--|---------7----| --9----7----7----9----|--4----7----9----11--9--|----7----7----| --7----7----5----7----|--4----5----7----9---7--|----7----5----| -------5--------------|--2---------------------|----5---------| --------------------|--------------------|----------------------| --------------------|--------------------|----------------------| --9-----------------|-------------9------|----11------9---------| --9----------4------|----7--------9------|----11------9------5--| --7----------4------|----7--------7------|----9-------7------5--| -------------2------|----5---------------|-------------------7--| -----------------------|---------------------|---------------|| -----------------------|---------------------|---------------|| ----7----9---------11--|----9---------7------|--9------------|| ----7----9----4----11--|----9----7----7------|--9------------|| ----5----7----4----9---|----7----7----5------|--7------------|| --------------2--------|---------5-----------|---------------||

    искать в аптеке
    список лекарств

    Гидроизоляция инъекционная изнутри

    Материалы для гидроизоляции

    мосгидротех.рф








    О сайтеАккордыХит-парадПоискУроки ФорумыИщу песню
    ПрограммыСвежачок-сПодпискаСтатьи
    Яндекс.Метрика