Басовая табулатура Nightwish | Over The Hills And Far Away гитара табулатуры уроки тексты песен Nightwish текст lyrics песня аккорды песни ноты нота электрогитара струна  
   А Б В Г Д Е Ж З И К Л М Н О П Р С Т У Ф Х Ч Ш Ы Э Ю Я       Разные песни
1-9 A B C D E F G H I J K L M N O P Q R S T U V W Y Z      Все исполнители in english

    



группа Nightwish, Басовая табулатура песни Over The Hills And Far Away

Работа в Европе для граждан РФ, Украины, СНГ

  • минимальная зарплата $500.
  • виза и контракт на полгода, возможно продление
  • проживание оплачивает работодатель
  • нужен только загранпаспорт
  • оформление 190 €
  • данное предложение - отличная возможность эмигрировать в Европу и закрепиться здесь навсегда.

  • Мы свяжемся с Вами по WhatsApp или Viber и ответим на любые вопросы.
    на нашем сайте можно почитать подробнее »

    Группа: Nightwish - другие аккорды (414),   о группе (12 статей),   диски (6),   фотографии (25)
    Басовая табулатура песни: Over The Hills And Far Away
    Просмотров: 985
    Подобрал: Forever (forever@akkords.ru)




        
                              Over The Hills And Far Away                           
    
                                                                           Nightwish
    Bass
    Tabbed by FilipZ
    
                                               
    G||---------------------------------------|
    D||*--------------------------------------|
    A||*--7--7--7--7--7--7--7--7--7--7--7--7--|
    E||---------------------------------------|
    
                                           3x                                       
    ---------------------------------------||--------------------------------------|
    --------------------------------------*||--------------------------------------|
    --7--7--7--7--7--7--7--7--7--7--7--7--*||--7--7--7--7--7--7--7--7--7--7--7--7--|
    ---------------------------------------||--------------------------------------|
    
                                                                    
    ----------------------|--------------------|-------------------|
    ----------------------|--------------------|-------------------|
    --7----------------7--|--7------------7----|--7----------------|
    --0----------------0--|--0------------0----|--0----------------|
    
                                                                                    
    ------------------|--------------------|-------------------|-------------------|
    ------------------|--------------------|-------------------|-------------------|
    ------------------|--7------------7----|--7----------------|--7----------------|
    ------------------|--0------------0----|--0----------------|--0----------------|
    
                                                                            
    --------------------------------------|--------------------------------|
    --------------------------------------|--------------------------------|
    --7--7--7--7--7--7--7--7--7--7--7--7--|--7--7--7--7--7--7--7--7--7--7--|
    --------------------------------------|--------------------------------|
    
                                                                                
    ------------------------------------------|--------------------------------|
    ------------------------------------------|--------------------------------|
    --10--10--10--10--10--10--10--10--10--10--|--7--7--7--7--7--7--7--7--7--7--|
    ------------------------------------------|--------------------------------|
    
                                                                      
    --------------------------------|--------------------------------|
    --------------------------------|--------------------------------|
    --5--5--5--5--5--5--5--5--5--5--|--7--7--7--7--7--7--7--7--7--7--|
    --------------------------------|--------------------------------|
    
                                                                                
    ------------------------------------------|--------------------------------|
    ------------------------------------------|--------------------------------|
    --10--10--10--10--10--10--10--10--10--10--|--5--5--5--5--5--5--5--5--5--5--|
    ------------------------------------------|--------------------------------|
    
                                                                        
    --------------------------------||---------------------------------|
    --------------------------------||*--------------------------------|
    --7--7--7--7--7--7--7--7--7--7--||*--3--3--3--3--3--3--3--3--3--3--|
    --------------------------------||---------------------------------|
    
                                                                      
    --------------------------------|--------------------------------|
    --------------------------------|--------------------------------|
    --3--3--3--3--3--3--3--3--3--3--|--5--5--5--5--5--5--5--5--5--5--|
    --------------------------------|--------------------------------|
    
                                                                        
    ---------------------------------||--------------------------------|
    --------------------------------*||--------------------------------|
    --5--5--5--5--5--5--5--5--5--5--*||--5--5--5--5--5--5--5--5--5--5--|
    ---------------------------------||--------------------------------|
    
                                                                   
    --------------------------------||----------------------------|
    --------------------------------||*---------------------------|
    --2----2----2----2----0----0----||*--7----7--7--10----10--10--|
    --------------------------------||----------------------------|
    
                                                                                 
    ------------------------|------------------------|-------------------------||
    ------------------------|------------------------|------------------------*||
    --5----5--5--7----7--7--|--5----5--5-------------|--3----3--3--5----5--5--*||
    ------------------------|-------------3----3--3--|-------------------------||
    
                                                                    
    ------------------------|--------------------------------------|
    ------------------------|--------------------------------------|
    --3----3--3--5----5--5--|--7--7--7--7--7--7--7--7--7--7--7--7--|
    ------------------------|--------------------------------------|
    
                                                                            
    --------------------------------------|--------------------------------|
    --------------------------------------|--------------------------------|
    --7--7--7--7--7--7--7--7--7--7--7--7--|--7--7--7--7--7--7--7--7--7--7--|
    --------------------------------------|--------------------------------|
    
                                                                                
    ------------------------------------------|--------------------------------|
    ------------------------------------------|--------------------------------|
    --10--10--10--10--10--10--10--10--10--10--|--7--7--7--7--7--7--7--7--7--7--|
    ------------------------------------------|--------------------------------|
    
                                                                      
    --------------------------------|--------------------------------|
    --------------------------------|--------------------------------|
    --5--5--5--5--5--5--5--5--5--5--|--7--7--7--7--7--7--7--7--7--7--|
    --------------------------------|--------------------------------|
    
                                                                                
    ------------------------------------------|--------------------------------|
    ------------------------------------------|--------------------------------|
    --10--10--10--10--10--10--10--10--10--10--|--5--5--5--5--5--5--5--5--5--5--|
    ------------------------------------------|--------------------------------|
    
                                                                        
    --------------------------------||---------------------------------|
    --------------------------------||*--------------------------------|
    --7--7--7--7--7--7--7--7--7--7--||*--3--3--3--3--3--3--3--3--3--3--|
    --------------------------------||---------------------------------|
    
                                                                      
    --------------------------------|--------------------------------|
    --------------------------------|--------------------------------|
    
    Узнай ВСЕ о своем друге в ВК или FB
    --3--3--3--3--3--3--3--3--3--3--|--5--5--5--5--5--5--5--5--5--5--| --------------------------------|--------------------------------| ---------------------------------||--------------------------------| --------------------------------*||--------------------------------| --5--5--5--5--5--5--5--5--5--5--*||--2----2----2----2----0----0----| ---------------------------------||--------------------------------| |----------------------------|------------------------|------------------------| |*---------------------------|------------------------|------------------------| |*--7----7--7--10----10--10--|--5----5--5--7----7--7--|--5----5--5-------------| |----------------------------|------------------------|-------------3----3--3--| -------------------------||----------------------------------| ------------------------*||----------------------------------| --3----3--3--5----5--5--*||--7----7--7--7--10----10--10--10--| -------------------------||----------------------------------| 3x --------------------||-------------------|-------------------|| --------------------||*------------------|------------------*|| --5--5--5--5--5--5--||*------------------|------------------*|| --------------------||-------------------|-------------------|| ------------------|--------------------------------------| ------------------|--------------------------------------| ------------------|--7--7--7--7--7--7--7--7--7--7--7--7--| ------------------|--------------------------------------| --------------------------------------|--------------------------------------| --------------------------------------|--------------------------------------| --7--7--7--7--7--7--7--7--7--7--7--7--|--7--7--7--7--7--7--7--7--7--7--7--7--| --------------------------------------|--------------------------------------| --------------------------------------|--------------------------------------| --------------------------------------|--------------------------------------| --7--7--7--7--7--7--7--7--7--7--7--7--|--7--7--7--7--7--7--7--7--7--7--7--7--| --------------------------------------|--------------------------------------| --------------------------------------|--------------------------------------| --------------------------------------|--------------------------------------| --7--7--7--7--7--7--7--7--7--7--7--7--|--7--7--7--7--7--7--7--7--7--7--7--7--| --------------------------------------|--------------------------------------| --------------------------------------|-------------------| --------------------------------------|-------------------| --7--7--7--7--7--7--7--7--7--7--7--7--|--7----------------| --------------------------------------|-------------------| ------------------------|-------------------| ------------------------|-------------------| --7--7--7--7------------|--7----------------| ------------------------|-------------------| --------------------------------------|--------------------------------------| --------------------------------------|--------------------------------------| --7--7--7--7--7--7--7--7--7--7--7--7--|--7--7--7--7--7--7--7--7--7--7--7--7--| --------------------------------------|--------------------------------------| --------------------------------------|--------------------------------------| --------------------------------------|--------------------------------------| --7--7--7--7--7--7--7--7--7--7--7--7--|--7--7--7--7--7--7--7--7--7--7--7--7--| --------------------------------------|--------------------------------------| --------------------------------------|------|------|------|------|------| --------------------------------------|------|------|------|------|------| --7--7--7--7--7--7--7--7--7--7--7--7--|------|------|------|------|------| --------------------------------------|------|------|------|------|------| ------|------|------||---------------------------------| ------|------|------||*--------------------------------| ------|------|------||*--3--3--3--3--3--3--3--3--3--3--| ------|------|------||---------------------------------| --------------------------------|--------------------------------| --------------------------------|--------------------------------| --3--3--3--3--3--3--3--3--3--3--|--5--5--5--5--5--5--5--5--5--5--| --------------------------------|--------------------------------| ---------------------------------||--------------------------------| --------------------------------*||--------------------------------| --5--5--5--5--5--5--5--5--5--5--*||--2----2----2----2----0----0----| ---------------------------------||--------------------------------| |----------------------------|------------------------|------------------------| |*---------------------------|------------------------|------------------------| |*--7----7--7--10----10--10--|--5----5--5--7----7--7--|--5----5--5-------------| |----------------------------|------------------------|-------------3----3--3--| 3x -------------------------||----|----|----|----|----|----|----|----|----|----| ------------------------*||----|----|----|----|----|----|----|----|----|----| --3----3--3--5----5--5--*||----|----|----|----|----|----|----|----|----|----| -------------------------||----|----|----|----|----|----|----|----|----|----| ----|----|----|----|----|----|| ----|----|----|----|----|----|| ----|----|----|----|----|----|| ----|----|----|----|----|----||

    искать в аптеке
    список лекарств






    О сайтеАккордыХит-парадПоискУроки ФорумыИщу песню
    ПрограммыСвежачок-сПодпискаСтатьи
    Яндекс.Метрика