Табулатура Nightwish | Moondance  (3) гитара табулатуры уроки тексты песен Nightwish текст lyrics песня аккорды песни ноты нота электрогитара струна  
   А Б В Г Д Е Ж З И К Л М Н О П Р С Т У Ф Х Ч Ш Ы Э Ю Я       Разные песни
1-9 A B C D E F G H I J K L M N O P Q R S T U V W Y Z      Все исполнители in english

    



группа Nightwish, Табулатура песни Moondance (3)

Работа в Европе для граждан РФ, Украины, СНГ

  • минимальная зарплата $500.
  • виза и контракт на полгода, возможно продление
  • проживание оплачивает работодатель
  • нужен только загранпаспорт
  • оформление 190 €
  • данное предложение - отличная возможность эмигрировать в Европу и закрепиться здесь навсегда.

  • Мы свяжемся с Вами по WhatsApp или Viber и ответим на любые вопросы.
    на нашем сайте можно почитать подробнее »

    Группа: Nightwish - другие аккорды (414),   о группе (12 статей),   диски (6),   фотографии (25)
    Табулатура песни: Moondance (3)
    Просмотров: 1151
    Подобрал: Forever (forever@akkords.ru)




        
    Strings
                                                                                   
    E||------------------|------------------|------------------|------------------|
    B||------------------|------------------|------------------|------------------|
    G||------------------|------------------|------------------|------------------|
    D||------------------|------------------|------------------|------------------|
    A||------------------|------------------|------------------|------------------|
    E||------------------|------------------|------------------|------------------|
    
                                                                                
    ------------------|------------------|------------------|------------------|
    ------------------|------------------|------------------|------------------|
    ------------------|------------------|------------------|------------------|
    ------------------|------------------|------------------|------------------|
    ------------------|------------------|------------------|------------------|
    ------------------|------------------|------------------|------------------|
    
                                                           
    ----------------------0-|----------------0------------|
    --------------------1---|--------------1------------1-|
    ------------------2-----|----2--2----2------2--2--2---|
    ------------------------|-----------------------------|
    ----------------3-------|----------3------------------|
    ------------------------|-----------------------------|
    
                                                           
    --0--1--0-----0-------0--|--1-----3--1--0-1-0---0-----|
    -----------3-------------|--------------------3-------|
    -------------------------|-------------------------2--|
    -------------------------|----------------------------|
    -------------------------|----------------------------|
    -------------------------|----------------------------|
    
                                                                 
    ----------------------------0-|----------------0------------|
    --1--3--0-----------------1---|--------------1------------1-|
    -----------0--2---------2-----|----2--2----2------2--2--2---|
    ------------------------------|-----------------------------|
    ----------------------3-------|----------3------------------|
    ------------------------------|-----------------------------|
    
                                                           
    --0--1--0-----0-------0--|--1-----3--1--0-1-0---0-----|
    -----------3-------------|--------------------3-------|
    -------------------------|-------------------------2--|
    -------------------------|----------------------------|
    -------------------------|----------------------------|
    -------------------------|----------------------------|
    
                                                                 
    ----------------------------0-|----------------0------------|
    --1--3--0-----------------1---|--------------1------------1-|
    -----------0--2---------2-----|----2--2----2------2--2--2---|
    ------------------------------|-----------------------------|
    ----------------------3-------|----------3------------------|
    ------------------------------|-----------------------------|
    
                                                           
    --0--1--0-----0-------0--|--1-----3--1--0-1-0---0-----|
    -----------3-------------|--------------------3-------|
    -------------------------|-------------------------2--|
    -------------------------|----------------------------|
    -------------------------|----------------------------|
    -------------------------|----------------------------|
    
                                                                 
    ----------------------------0-|----------------0------------|
    --1--3--0-----------------1---|--------------1------------1-|
    -----------0--2---------2-----|----2--2----2------2--2--2---|
    ------------------------------|-----------------------------|
    ----------------------3-------|----------3------------------|
    ------------------------------|-----------------------------|
    
                                                                                   
    --0--1--0-----0-------0--|--1-----3--1--0-1-0---0-----|-----------------------|
    -----------3-------------|--------------------3-------|--1--3--0--------------|
    -------------------------|-------------------------2--|-----------0--2--------|
    -------------------------|----------------------------|-----------------------|
    -------------------------|----------------------------|-----------------------|
    -------------------------|----------------------------|-----------------------|
    
                                                                                
    ------------------|------------------|------------------|------------------|
    ------------------|------------------|------------------|------------------|
    ------------------|------------------|------------------|------------------|
    ------------------|------------------|------------------|------------------|
    ------------------|------------------|------------------|------------------|
    ------------------|------------------|------------------|------------------|
    
                                                                                
    ------------------|------------------|------------------|------------------|
    ------------------|------------------|------------------|------------------|
    ------------------|------------------|------------------|------------------|
    ------------------|------------------|------------------|------------------|
    ------------------|------------------|------------------|------------------|
    ------------------|------------------|------------------|------------------|
    
                                                                                
    ------------------|------------------|------------------|------------------|
    ------------------|------------------|------------------|------------------|
    ------------------|------------------|------------------|------------------|
    ------------------|------------------|------------------|------------------|
    ------------------|------------------|------------------|------------------|
    ------------------|------------------|------------------|------------------|
    
                                                                                
    ------------------|------------------|------------------|------------------|
    ------------------|------------------|------------------|------------------|
    ------------------|------------------|------------------|------------------|
    ------------------|------------------|------------------|------------------|
    ------------------|------------------|------------------|------------------|
    ------------------|------------------|------------------|------------------|
    
                                                                                
    ------------------|------------------|------------------|------------------|
    ------------------|------------------|------------------|------------------|
    ------------------|------------------|------------------|------------------|
    ------------------|------------------|------------------|------------------|
    ------------------|------------------|------------------|------------------|
    ------------------|------------------|------------------|------------------|
    
                                                        
    --------------------5---5-|------5-----3-----0-----|
    --------0--0--1--3--------|---------------------3--|
    --2--2--------------------|------------------------|
    --------------------------|------------------------|
    --------------------------|------------------------|
    --------------------------|------------------------|
    
                                                           
    --0-----0-----0-1---0-1---1-|-----0----------0--1-----|
    ------------------3---------|--------3----3-----------|
    ----------------------------|-------------------------|
    ----------------------------|-------------------------|
    ----------------------------|-------------------------|
    ----------------------------|-------------------------|
    
                                                                                
    ---------------------------|----------------------|--------5---5-----5-----|
    --0----0-----1-0-----------|----------------0--0--|--1--3------------------|
    -----------------2-0-2-----|----------2--2--------|------------------------|
    ---------------------------|----------------------|------------------------|
    ---------------------------|----------------------|------------------------|
    ---------------------------|----------------------|------------------------|
    
                                                           
    --3-----0-----0-----0-----|--0-1---0-1---1----0-------|
    -----------3--------------|------3---------------3----|
    --------------------------|---------------------------|
    --------------------------|---------------------------|
    --------------------------|---------------------------|
    --------------------------|---------------------------|
    
                                                                                
    -----0--1------------------|----------------------|----------0--1--0-------|
    --3-----------0----0-----1-|---0------------------|--3----------------3----|
    ---------------------------|-----2-0-2------------|------------------------|
    ---------------------------|----------------------|------------------------|
    ---------------------------|----------------------|------------------------|
    ---------------------------|----------------------|------------------------|
    
                                                                             
    --------------8-------7--|--5--3--5------------|----------0--1--0-------|
    -------------------------|-----0---------------|--3----------------3----|
    --0-----------9-------7--|--5-----5------------|------------------------|
    --------3----------------|---------------------|------------------------|
    
    Узнай ВСЕ о своем друге в ВК или FB
    -------------------------|---------------------|------------------------| -------------------------|---------------------|------------------------| ----------5-------7--|--5-----3--------------|----0--1--0---------------| ---------------------|-----------------3-----|-------------3------------| ---------------------|-----------------------|------------------0-------| ---------------------|-----------------------|------------------------3-| ---------------------|-----------------------|--------------------------| ---------------------|-----------------------|--------------------------| ------8-------7--5--3--5-|-------------------|----0--1--0------------| --------------------0----|-------------3-----|-------------3---------| ------9-------7--5-----5-|-------------------|-----------------------| -------------------------|-------------------|-----------------------| -------------------------|-------------------|-----------------------| -------------------------|-------------------|-----------------------| -----5-------7--5-----3-|-------------------|------------------| ------------------------|-------------------|------------------| ------------------------|-------------------|------------------| ------------------------|-------------------|------------------| ------------------------|-------------------|------------------| ------------------------|-------------------|------------------| -----------------0--1--8--|----8-------8------7-----0-| -----1--1--3--3--1--3--10-|----10------10-----8-----8-| -----2--2--4--4-----------|---------------------------| --------------------------|---------------------------| --------------------------|---------------------------| --------------------------|---------------------------| ------0-----0-----0-5---0-5-|----5---3-----------0--5-| ---6--8-----8-----8-6-6-8-6-|----6---5--6-----6--8--6-| ---7------------------7-----|-----------7-----7-------| ----------------------------|-------------------------| ----------------------------|-------------------------| ----------------------------|-------------------------| ----------------0----------|---------------------|------0--1--8------8------8--| ------0---0-------0---0-1--|-------------1--1--3-|---3--1--3--10-----10-----10-| ------7---7-----5-7-5-0-2--|-------------2--2--4-|---4-------------------------| --------------------7------|---------------------|-----------------------------| ---------------------------|---------------------|-----------------------------| ---------------------------|---------------------|-----------------------------| ------7-----0-----0-----0-|------0-5---0-5----5--3--5-| ------8-----8--6--8-----8-|------8-6-6-8-6----6-------| ---------------7----------|----------7----------------| --------------------------|---------------------------| --------------------------|---------------------------| --------------------------|---------------------------| -----5--7--8-----7-----8-|-----7-8-5-3-5---------|----3-6-10----------6-10----| -------------------------|-----------------------|------------8--8--8-------8-| -------------------------|-----------------------|----------------------------| -------------------------|-----------------------|----------------------------| -------------------------|-----------------------|----------------------------| -------------------------|-----------------------|----------------------------| --------6-10--11--10--8--10---|------10--11----13--11--10-11-10-| ---8--8-----------------------|---------------------------------| ------------------------------|---------------------------------| ------------------------------|---------------------------------| ------------------------------|---------------------------------| ------------------------------|---------------------------------| --8-10-----6--8--5-----3---|------3-6-10----------6-10----| --------8-----------6------|--------------8--8--8-------8-| ---------------------------|------------------------------| ---------------------------|------------------------------| ---------------------------|------------------------------| ---------------------------|------------------------------| --------6-10--11--10--8--10---|------10--11----13--11--10-11-10-| ---8--8-----------------------|---------------------------------| ------------------------------|---------------------------------| ------------------------------|---------------------------------| ------------------------------|---------------------------------| ------------------------------|---------------------------------| --8-10-----6--8--5-----3---|------------0---------------0----| --------8-----------6------|----------1---------------1------| ---------------------------|--------2-------2--2----2------2-| ---------------------------|---------------------------------| ---------------------------|------3---------------3----------| ---------------------------|---------------------------------| ----------0--1--0-----0---|------0--1-----3--1--0-1-0-| --------1----------3------|---------------------------| ---2--2-------------------|---------------------------| --------------------------|---------------------------| --------------------------|---------------------------| --------------------------|---------------------------| ----0---------------------|------------0---------------0----| --3-------1--3--0---------|----------1---------------1------| -------2-----------0--2---|--------2-------2--2----2------2-| --------------------------|---------------------------------| --------------------------|------3---------------3----------| --------------------------|---------------------------------| ----------0--1--0-----0---|------0--1-----3--1--0-1-0-| --------1----------3------|---------------------------| ---2--2-------------------|---------------------------| --------------------------|---------------------------| --------------------------|---------------------------| --------------------------|---------------------------| ----0---------------------|------0----------------0------------| --3-------1--3--0---------|--------4-3-2-1----------4-3-2-1----| -------2-----------0--2---|-----------------2--2-------------2-| --------------------------|------------------------------------| --------------------------|------------------------------------| --------------------------|------------------------------------| ------0------0--1-----0---|------0--1-----3--1--0-1-0-| --------3-1--------3------|---------------------------| ---2----------------------|---------------------------| --------------------------|---------------------------| --------------------------|---------------------------| --------------------------|---------------------------| ----0---------------------|------0----------------0------------| --3-------1--3--0---------|--------4-3-2-1----------4-3-2-1----| -------2-----------0--2---|-----------------2--2-------------2-| --------------------------|------------------------------------| --------------------------|------------------------------------| --------------------------|------------------------------------| ------0------0--1-----0---|------0--1-----3--1--0-1-0-| --------3-1--------3------|---------------------------| ---2----------------------|---------------------------| --------------------------|---------------------------| --------------------------|---------------------------| --------------------------|---------------------------| ----0--------------------5-|--5-5---------------|| --3-------1--3--0----------|--------------------|| -------2-----------0-------|--------------------|| ---------------------------|--------------------|| ---------------------------|--------------------|| ---------------------------|--------------------||

    найти лекарство
    список лекарств






    О сайтеАккордыХит-парадПоискУроки ФорумыИщу песню
    ПрограммыСвежачок-сПодпискаСтатьи
    Яндекс.Метрика