Табулатура Nightwish | Crownless  (4) гитара табулатуры уроки тексты песен Nightwish текст lyrics песня аккорды песни ноты нота электрогитара струна  
   А Б В Г Д Е Ж З И К Л М Н О П Р С Т У Ф Х Ч Ш Ы Э Ю Я       Разные песни
1-9 A B C D E F G H I J K L M N O P Q R S T U V W Y Z      Все исполнители in english

    



группа Nightwish, Табулатура песни Crownless (4)

Работа в Европе для граждан РФ, Украины, СНГ

  • минимальная зарплата $500.
  • виза и контракт на полгода, возможно продление
  • проживание оплачивает работодатель
  • нужен только загранпаспорт
  • оформление 190 €
  • данное предложение - отличная возможность эмигрировать в Европу и закрепиться здесь навсегда.

  • Мы свяжемся с Вами по WhatsApp или Viber и ответим на любые вопросы.
    на нашем сайте можно почитать подробнее »

    Группа: Nightwish - другие аккорды (414),   о группе (12 статей),   диски (6),   фотографии (25)
    Табулатура песни: Crownless (4)
    Просмотров: 1046
    Подобрал: Forever (forever@akkords.ru)




        
                                      Crownless                                     
    
                                                             T.Holopainen/E.Vuorinen
    Keyboard 1.
    
                                        
    E||--0-2-2-2--2-2-2-5-2-2-2--2-2-2-|
    B||--------------------------------|
    G||--------------------------------|
    D||--------------------------------|
    A||--------------------------------|
    E||--------------------------------|
    
                                                   
    --10----------9-------------------------------|
    -----10----10---10----10-12-10----10--12-10-9-|
    --------11---------11----------11-------------|
    ----------------------------------------------|
    ----------------------------------------------|
    ----------------------------------------------|
    
                                                                         
    --------------------------------------|-----------------5-----4-----|
    ------------------------10------9-----|--------------------------3--|
    -----------------------------------7--|--6-7-7-7--7-7-7----7--------|
    --11-12-12-12--12-12-12-----12--------|-----------------------------|
    --------------------------------------|-----------------------------|
    --------------------------------------|-----------------------------|
    
                                                                                    
    --0-2-2-2--2-2-2-5-2-2-2--2-2-2-|--10----------9-------------------------------|
    --------------------------------|-----10----10---10----10-12-10----10--12-10-9-|
    --------------------------------|--------11---------11----------11-------------|
    --------------------------------|----------------------------------------------|
    --------------------------------|----------------------------------------------|
    --------------------------------|----------------------------------------------|
    
                                                                         
    --------------------------------------|-----------------5-----4-----|
    ------------------------10------9-----|--------------------------3--|
    -----------------------------------7--|--6-7-7-7--7-7-7----7--------|
    --11-12-12-12--12-12-12-----12--------|-----------------------------|
    --------------------------------------|-----------------------------|
    --------------------------------------|-----------------------------|
    
                                                                                    
    --0-2-2-2--2-2-2-5-2-2-2--2-2-2-|--10----------9-------------------------------|
    --------------------------------|-----10----10---10----10-12-10----10--12-10-9-|
    --------------------------------|--------11---------11----------11-------------|
    --------------------------------|----------------------------------------------|
    --------------------------------|----------------------------------------------|
    --------------------------------|----------------------------------------------|
    
                                                                           
    --------------------------------------|-------------------------------|
    ------------------------10------9-----|-----------------10------9-----|
    -----------------------------------7--|--6-7-7-7--7-7-7------------7--|
    --11-12-12-12--12-12-12-----12--------|---------------------12--------|
    --------------------------------------|-------------------------------|
    --------------------------------------|-------------------------------|
    
                                                                                    
    --0-2-2-2--2-2-2-5-2-2-2--2-2-2-|--10----------9-------------------------------|
    --------------------------------|-----10----10---10----10-12-10----10--12-10-9-|
    --------------------------------|--------11---------11----------11-------------|
    --------------------------------|----------------------------------------------|
    --------------------------------|----------------------------------------------|
    --------------------------------|----------------------------------------------|
    
                                                                           
    --------------------------------------|-------------------------------|
    ------------------------10------9-----|-----------------10------9-----|
    -----------------------------------7--|--6-7-7-7--7-7-7------------7--|
    --11-12-12-12--12-12-12-----12--------|---------------------12--------|
    --------------------------------------|-------------------------------|
    --------------------------------------|-------------------------------|
    
                                                                         
    ---------------------------------|----------------------------------|
    ---------------------------------|----------------------------------|
    -----------------1---2---1-------|--1-------------------------------|
    -----0---3---4---------------4---|------4---3---4---3-4-3-0---------|
    --4----4---4---4---4---4---4---4-|----4---4---4---4---------4-2-0---|
    ---------------------------------|--------------------------------4-|
    
                                                                                
    ------------------|------------------|------------------|------------------|
    ------------------|------------------|------------------|------------------|
    ------------------|------------------|------------------|------------------|
    ------------------|------------------|------------------|------------------|
    ------------------|------------------|------------------|------------------|
    ------------------|------------------|------------------|------------------|
    
                                                                                
    ------------------|------------------|------------------|------------------|
    ------------------|------------------|------------------|------------------|
    ------------------|------------------|------------------|------------------|
    ------------------|------------------|------------------|------------------|
    ------------------|------------------|------------------|------------------|
    ------------------|------------------|------------------|------------------|
    
                                                                                    
    --0-2-2-2--2-2-2-5-2-2-2--2-2-2-|--10----------9-------------------------------|
    --------------------------------|-----10----10---10----10-12-10----10--12-10-9-|
    --------------------------------|--------11---------11----------11-------------|
    --------------------------------|----------------------------------------------|
    --------------------------------|----------------------------------------------|
    --------------------------------|----------------------------------------------|
    
                                                                         
    --------------------------------------|-----------------5-----4-----|
    ------------------------10------9-----|--------------------------3--|
    -----------------------------------7--|--6-7-7-7--7-7-7----7--------|
    --11-12-12-12--12-12-12-----12--------|-----------------------------|
    --------------------------------------|-----------------------------|
    --------------------------------------|-----------------------------|
    
                                                                                    
    --0-2-2-2--2-2-2-5-2-2-2--2-2-2-|--10----------9-------------------------------|
    --------------------------------|-----10----10---10----10-12-10----10--12-10-9-|
    --------------------------------|--------11---------11----------11-------------|
    --------------------------------|----------------------------------------------|
    --------------------------------|----------------------------------------------|
    --------------------------------|----------------------------------------------|
    
                                                                         
    --------------------------------------|-----------------5-----4-----|
    ------------------------10------9-----|--------------------------3--|
    -----------------------------------7--|--6-7-7-7--7-7-7----7--------|
    --11-12-12-12--12-12-12-----12--------|-----------------------------|
    --------------------------------------|-----------------------------|
    --------------------------------------|-----------------------------|
    
                                                                         
    ---------------------------------|----------------------------------|
    ---------------------------------|----------------------------------|
    -----------------1---2---1-------|--1-------------------------------|
    -----0---3---4---------------4---|------4---3---4---3-4-3-0---------|
    --4----4---4---4---4---4---4---4-|----4---4---4---4---------4-2-0---|
    ---------------------------------|--------------------------------4-|
    
                                                                                
    ------------------|------------------|------------------|------------------|
    ------------------|------------------|------------------|------------------|
    ------------------|------------------|------------------|------------------|
    ------------------|------------------|------------------|------------------|
    ------------------|------------------|------------------|------------------|
    ------------------|------------------|------------------|------------------|
    
                                                                                
    ------------------|------------------|------------------|------------------|
    ------------------|------------------|------------------|------------------|
    ------------------|------------------|------------------|------------------|
    ------------------|------------------|------------------|------------------|
    ------------------|------------------|------------------|------------------|
    ------------------|------------------|------------------|------------------|
    
                                                   
    --5---2-5-10----------------------10----------|
    ----3--------10-------10-------10----10-------|
    ----------------11----------11----------11----|
    -------------------12----12----------------12-|
    ----------------------------------------------|
    ----------------------------------------------|
    
                                                    
    ---------7-12----------------------12----------|
    --12---9------12-------12-------12----12-------|
    -----9-----------13----------13----------13----|
    --------------------14----14----------------14-|
    -----------------------------------------------|
    -----------------------------------------------|
    
                                         
    ------------9-------4-----4-9-------|
    ----------9---9---------5-----9-----|
    --13----9-------9-6---6---------9-6-|
    -----11-----------------------------|
    ------------------------------------|
    ------------------------------------|
    
                                                 
    --9---5-9-14----------9-------9-14----------|
    ----7--------14------------10------14-------|
    ----------------14-11---11------------14-11-|
    --------------------------------------------|
    --------------------------------------------|
    --------------------------------------------|
    
                                                       
    --------------10----------------------10----------|
    --10-------10----10-------10-------10----10-------|
    --------11----------11----------11----------11----|
    -----12----------------12----12----------------12-|
    --------------------------------------------------|
    --------------------------------------------------|
    
                                             
    --9------9-12-9------9------9-12-9------|
    ------10--------10-------10--------10---|
    ----9--------------9---9--------------9-|
    ----------------------------------------|
    ----------------------------------------|
    ----------------------------------------|
    
                                               
    --7------7-12---------7------7-12---------|
    ------10------12-10-------10------12-10---|
    ----9---------------9---9---------------9-|
    ------------------------------------------|
    ------------------------------------------|
    ------------------------------------------|
    
                                                   
    --7-----7-12----------------------12----------|
    ------9------12-------12-------12----12-------|
    ----9-----------13----------13----------13----|
    -------------------14----14----------------14-|
    ----------------------------------------------|
    ----------------------------------------------|
    
                                                       
    --------------10----------------------10----------|
    -----------10----10-------10-------10----10-------|
    --14----11----------11----------11----------11----|
    -----12----------------12----12----------------12-|
    --------------------------------------------------|
    --------------------------------------------------|
    
                                                    
    ---------7-12----------------------12----------|
    --12---9------12-------12-------12----12-------|
    -----9-----------13----------13----------13----|
    --------------------14----14----------------14-|
    -----------------------------------------------|
    -----------------------------------------------|
    
                                         
    ------------9-------4-----4-9-------|
    ----------9---9---------5-----9-----|
    --13----9-------9-6---6---------9-6-|
    -----11-----------------------------|
    ------------------------------------|
    ------------------------------------|
    
                                                 
    --9---5-9-14----------9-------9-14----------|
    ----7--------14------------10------14-------|
    ----------------14-11---11------------14-11-|
    --------------------------------------------|
    --------------------------------------------|
    --------------------------------------------|
    
                                                       
    --------------10----------------------10----------|
    --10-------10----10-------10-------10----10-------|
    --------11----------11----------11----------11----|
    -----12----------------12----12----------------12-|
    --------------------------------------------------|
    --------------------------------------------------|
    
                                             
    --9------9-12-9------9------9-12-9------|
    ------10--------10-------10--------10---|
    ----9--------------9---9--------------9-|
    ----------------------------------------|
    ----------------------------------------|
    ----------------------------------------|
    
                                                     
    --13-9------------13----------------13----------|
    -------9-------------14----------------14-------|
    ---------10-------------13----------------13----|
    ------------11-------------15----------------15-|
    ---------------11-------------16----------------|
    ---------------------------------16-------------|
    
                                                                               
    --14-------14-------14----16--------|------------------|------------------|
    -----14-------14--------------------|------------------|------------------|
    --------13-------13----13-----------|------------------|------------------|
    ------------------------------------|------------------|------------------|
    ------------------------------------|------------------|------------------|
    ------------------------------------|------------------|------------------|
    
                                                                                
    ------------------|------------------|------------------|------------------|
    ------------------|------------------|------------------|------------------|
    ------------------|------------------|------------------|------------------|
    ------------------|------------------|------------------|------------------|
    ------------------|------------------|------------------|------------------|
    ------------------|------------------|------------------|------------------|
    
                                                                                
    ------------------|------------------|------------------|------------------|
    ------------------|------------------|------------------|------------------|
    ------------------|------------------|------------------|------------------|
    ------------------|------------------|------------------|------------------|
    ------------------|------------------|------------------|------------------|
    ------------------|------------------|------------------|------------------|
    
                                                              
    ------------------|--------------2----|------------------|
    ------------------|-------------------|------------------|
    ------------------|-------------------|------------------|
    ------------------|-------------------|------------------|
    ------------------|-------------------|------------------|
    ------------------|-------------------|------------------|
    
                                                                              
    ----------0-2--2--2--2-|--2---9---7-----------7--|--9--------------------|
    -----------------------|-------------9---10------|------10---9--7--------|
    -----------------------|-------------------------|-----------------------|
    -----------------------|-------------------------|-----------------------|
    -----------------------|-------------------------|-----------------------|
    -----------------------|-------------------------|-----------------------|
    
                                                                                   
    --9-10-9-7-5-4-2-1-2--------|-------------------0---0----|-------14-----------|
    ----------------------------|--2--0-2-------------0------|--------------------|
    ----------------------------|---------2--1----1----------|--------------------|
    ----------------------------|---------------2------------|--------------------|
    ----------------------------|----------------------------|--------------------|
    ----------------------------|----------------------------|--------------------|
    
                                                                 
    ------------------|--5-4-2---2-4-0-2-4-5-2-4-5-7-9-12-14-16-|
    ------------------|--------2--------------------------------|
    ------------------|-----------------------------------------|
    ------------------|-----------------------------------------|
    ------------------|-----------------------------------------|
    ------------------|-----------------------------------------|
    
                                                                     
    --17---16---14--19--------|------------------|------------------|
    --------------------------|------------------|------------------|
    --------------------------|------------------|------------------|
    --------------------------|------------------|------------------|
    --------------------------|------------------|------------------|
    --------------------------|------------------|------------------|
    
                                                                                
    ------------------|------------------|------------------|------------------|
    ------------------|------------------|------------------|------------------|
    ------------------|------------------|------------------|------------------|
    ------------------|------------------|------------------|------------------|
    ------------------|------------------|------------------|------------------|
    ------------------|------------------|------------------|------------------|
    
                                                                           
    ------------------|------------------|--0-2-2-2--2-2-2-5-2-2-2--2-2-2-|
    ------------------|------------------|--------------------------------|
    ------------------|------------------|--------------------------------|
    ------------------|------------------|--------------------------------|
    ------------------|------------------|--------------------------------|
    ------------------|------------------|--------------------------------|
    
                                                                         
    
    Узнай ВСЕ о своем друге в ВК или FB
    --9-10-9-7-9-7-5-4-2-4-5-7-9-7-5-4-|----2-2-2--2-2-2-5-2-2-2--2-2-2-| -----------------------------------|--5-----------------------------| --9-11-9-7-9-7-6-4-2-4-6-7-9-7-6-4-|--------------------------------| -----------------------------------|--------------------------------| -----------------------------------|--------------------------------| -----------------------------------|--------------------------------| --9-5----7-4----5-2----4-1----|--0-2-2-2--2-2-2-5-2-2-2--2-2-2-| ------7------5------3------2--|--------------------------------| ------------------------------|--------------------------------| ------------------------------|--------------------------------| ------------------------------|--------------------------------| ------------------------------|--------------------------------| --9-10-9-7-9-7-5-4-2-4-5-7-9-7-5-4-|--9-5----7-4----5-2----4-1----| -----------------------------------|------7------5------3------2--| --9-11-9-7-9-7-6-4-2-4-6-7-9-7-6-4-|------------------------------| -----------------------------------|------------------------------| -----------------------------------|------------------------------| -----------------------------------|------------------------------| --2------1------|------------------|------------------|------------------| ----3-0----2----|------------------|------------------|------------------| -------------1--|------------------|------------------|------------------| ----------------|------------------|------------------|------------------| ----------------|------------------|------------------|------------------| ----------------|------------------|------------------|------------------| ------------------|------------------|------------------|------------------| ------------------|------------------|------------------|------------------| ------------------|------------------|------------------|------------------| ------------------|------------------|------------------|------------------| ------------------|------------------|------------------|------------------| ------------------|------------------|------------------|------------------| --0-2-2-2--2-2-2-5-2-2-2--2-2-2-|--10----------9-------------------------------| --------------------------------|-----10----10---10----10-12-10----10--12-10-9-| --------------------------------|--------11---------11----------11-------------| --------------------------------|----------------------------------------------| --------------------------------|----------------------------------------------| --------------------------------|----------------------------------------------| --------------------------------------|-----------------5-----4-----| ------------------------10------9-----|--------------------------3--| -----------------------------------7--|--6-7-7-7--7-7-7----7--------| --11-12-12-12--12-12-12-----12--------|-----------------------------| --------------------------------------|-----------------------------| --------------------------------------|-----------------------------| --0-2-2-2--2-2-2-5-2-2-2--2-2-2-|--10----------9-------------------------------| --------------------------------|-----10----10---10----10-12-10----10--12-10-9-| --------------------------------|--------11---------11----------11-------------| --------------------------------|----------------------------------------------| --------------------------------|----------------------------------------------| --------------------------------|----------------------------------------------| --------------------------------------|-----------------5-----4-----| ------------------------10------9-----|--------------------------3--| -----------------------------------7--|--6-7-7-7--7-7-7----7--------| --11-12-12-12--12-12-12-----12--------|-----------------------------| --------------------------------------|-----------------------------| --------------------------------------|-----------------------------| ---------------------------------|----------------------------------| ---------------------------------|----------------------------------| -----------------1---2---1-------|--1-------------------------------| -----0---3---4---------------4---|------4---3---4---3-4-3-0---------| --4----4---4---4---4---4---4---4-|----4---4---4---4---------4-2-0---| ---------------------------------|--------------------------------4-| ------------------|------------------|------------------|------------------| ------------------|------------------|------------------|------------------| ------------------|------------------|------------------|------------------| ------------------|------------------|------------------|------------------| ------------------|------------------|------------------|------------------| ------------------|------------------|------------------|------------------| ------------------|------------------|------------------|------------------| ------------------|------------------|------------------|------------------| ------------------|------------------|------------------|------------------| ------------------|------------------|------------------|------------------| ------------------|------------------|------------------|------------------| ------------------|------------------|------------------|------------------| --5---2-5-10----------------------10----------| ----3--------10-------10-------10----10-------| ----------------11----------11----------11----| -------------------12----12----------------12-| ----------------------------------------------| ----------------------------------------------| ---------7-12----------------------12----------| --12---9------12-------12-------12----12-------| -----9-----------13----------13----------13----| --------------------14----14----------------14-| -----------------------------------------------| -----------------------------------------------| ------------9-------4-----4-9-------| ----------9---9---------5-----9-----| --13----9-------9-6---6---------9-6-| -----11-----------------------------| ------------------------------------| ------------------------------------| --9---5-9-14----------9-------9-14----------| ----7--------14------------10------14-------| ----------------14-11---11------------14-11-| --------------------------------------------| --------------------------------------------| --------------------------------------------| --------------10----------------------10----------| --10-------10----10-------10-------10----10-------| --------11----------11----------11----------11----| -----12----------------12----12----------------12-| --------------------------------------------------| --------------------------------------------------| --9------9-12-9------9------9-12-9------| ------10--------10-------10--------10---| ----9--------------9---9--------------9-| ----------------------------------------| ----------------------------------------| ----------------------------------------| --7------7-12---------7------7-12---------| ------10------12-10-------10------12-10---| ----9---------------9---9---------------9-| ------------------------------------------| ------------------------------------------| ------------------------------------------| --7-----7-12----------------------12----------| ------9------12-------12-------12----12-------| ----9-----------13----------13----------13----| -------------------14----14----------------14-| ----------------------------------------------| ----------------------------------------------| --------------10----------------------10----------| -----------10----10-------10-------10----10-------| --14----11----------11----------11----------11----| -----12----------------12----12----------------12-| --------------------------------------------------| --------------------------------------------------| ---------7-12----------------------12----------| --12---9------12-------12-------12----12-------| -----9-----------13----------13----------13----| --------------------14----14----------------14-| -----------------------------------------------| -----------------------------------------------| ------------9-------4-----4-9-------| ----------9---9---------5-----9-----| --13----9-------9-6---6---------9-6-| -----11-----------------------------| ------------------------------------| ------------------------------------| --9---5-9-14----------9-------9-14----------| ----7--------14------------10------14-------| ----------------14-11---11------------14-11-| --------------------------------------------| --------------------------------------------| --------------------------------------------| --------------10----------------------10----------| --10-------10----10-------10-------10----10-------| --------11----------11----------11----------11----| -----12----------------12----12----------------12-| --------------------------------------------------| --------------------------------------------------| --9------9-12-9------9------9-12-9------| ------10--------10-------10--------10---| ----9--------------9---9--------------9-| ----------------------------------------| ----------------------------------------| ----------------------------------------| --13-9------------13----------------13----------| -------9-------------14----------------14-------| ---------10-------------13----------------13----| ------------11-------------15----------------15-| ---------------11-------------16----------------| ---------------------------------16-------------| --14-------14-------14----16--------| -----14-------14--------------------| --------13-------13----13-----------| ------------------------------------| ------------------------------------| ------------------------------------| --------------10----------------------10----------| -----------10----10-------10-------10----10-------| --14----11----------11----------11----------11----| -----12----------------12----12----------------12-| --------------------------------------------------| --------------------------------------------------| ---------7-12----------------------12----------| --12---9------12-------12-------12----12-------| -----9-----------13----------13----------13----| --------------------14----14----------------14-| -----------------------------------------------| -----------------------------------------------| ------------9-------4-----4-9-------| ----------9---9---------5-----9-----| --13----9-------9-6---6---------9-6-| -----11-----------------------------| ------------------------------------| ------------------------------------| --9---5-9-14----------9-------9-14----------| ----7--------14------------10------14-------| ----------------14-11---11------------14-11-| --------------------------------------------| --------------------------------------------| --------------------------------------------| --------------10----------------------10----------| --10-------10----10-------10-------10----10-------| --------11----------11----------11----------11----| -----12----------------12----12----------------12-| --------------------------------------------------| --------------------------------------------------| --9------9-12-9------9------9-12-9------| ------10--------10-------10--------10---| ----9--------------9---9--------------9-| ----------------------------------------| ----------------------------------------| ----------------------------------------| --7------7-12---------7------7-12---------| ------10------12-10-------10------12-10---| ----9---------------9---9---------------9-| ------------------------------------------| ------------------------------------------| ------------------------------------------| --7-----7-12----------------------12----------| ------9------12-------12-------12----12-------| ----9-----------13----------13----------13----| -------------------14----14----------------14-| ----------------------------------------------| ----------------------------------------------| --------------10----------------------10----------| -----------10----10-------10-------10----10-------| --14----11----------11----------11----------11----| -----12----------------12----12----------------12-| --------------------------------------------------| --------------------------------------------------| ---------7-12----------------------12----------| --12---9------12-------12-------12----12-------| -----9-----------13----------13----------13----| --------------------14----14----------------14-| -----------------------------------------------| -----------------------------------------------| ------------9-------4-----4-9-------| ----------9---9---------5-----9-----| --13----9-------9-6---6---------9-6-| -----11-----------------------------| ------------------------------------| ------------------------------------| --9---5-9-14----------9-------9-14----------| ----7--------14------------10------14-------| ----------------14-11---11------------14-11-| --------------------------------------------| --------------------------------------------| --------------------------------------------| --------------10----------------------10----------| --10-------10----10-------10-------10----10-------| --------11----------11----------11----------11----| -----12----------------12----12----------------12-| --------------------------------------------------| --------------------------------------------------| --9------9-12-9------9------9-12-9------| ------10--------10-------10--------10---| ----9--------------9---9--------------9-| ----------------------------------------| ----------------------------------------| ----------------------------------------| --13-9------------13----------------13----------|--21----------------| -------9-------------14----------------14-------|--------------------| ---------10-------------13----------------13----|--------------------| ------------11-------------15----------------15-|--------------------| ---------------11-------------16----------------|--------------------| ---------------------------------16-------------|--------------------| ------------------|------------------|------------------|------------------|| ------------------|------------------|------------------|------------------|| ------------------|------------------|------------------|------------------|| ------------------|------------------|------------------|------------------|| ------------------|------------------|------------------|------------------|| ------------------|------------------|------------------|------------------||

    найти лекарство
    список лекарств






    О сайтеАккордыХит-парадПоискУроки ФорумыИщу песню
    ПрограммыСвежачок-сПодпискаСтатьи
    Яндекс.Метрика