Табулатура Nightwish | Crownless  (3) гитара табулатуры уроки тексты песен Nightwish текст lyrics песня аккорды песни ноты нота электрогитара струна  
   А Б В Г Д Е Ж З И К Л М Н О П Р С Т У Ф Х Ч Ш Ы Э Ю Я       Разные песни
1-9 A B C D E F G H I J K L M N O P Q R S T U V W Y Z      Все исполнители in english

    



группа Nightwish, Табулатура песни Crownless (3)

Работа в Европе для граждан РФ, Украины, СНГ

  • минимальная зарплата $500.
  • виза и контракт на полгода, возможно продление
  • проживание оплачивает работодатель
  • нужен только загранпаспорт
  • оформление 190 €
  • данное предложение - отличная возможность эмигрировать в Европу и закрепиться здесь навсегда.

  • Мы свяжемся с Вами по WhatsApp или Viber и ответим на любые вопросы.
    на нашем сайте можно почитать подробнее »

    Группа: Nightwish - другие аккорды (414),   о группе (12 статей),   диски (6),   фотографии (25)
    Табулатура песни: Crownless (3)
    Просмотров: 765
    Подобрал: Forever (forever@akkords.ru)




        
                                      Crownless                                     
    
                                                             T.Holopainen/E.Vuorinen
    Keyboard 2.
    
                                                                                   
    E||------------------|------------------|------------------|------------------|
    B||------------------|------------------|------------------|------------------|
    G||------------------|------------------|------------------|------------------|
    D||------------------|------------------|------------------|------------------|
    A||------------------|------------------|------------------|------------------|
    E||------------------|------------------|------------------|------------------|
    
                                                                                   
    --9-----------------|------------------|--5----------------|------------------|
    --10----------------|------------------|--7----------------|------------------|
    --11----------------|------------------|--7----------------|------------------|
    --------------------|------------------|-------------------|------------------|
    --------------------|------------------|-------------------|------------------|
    --------------------|------------------|-------------------|------------------|
    
                                                                                   
    --9-----------------|------------------|--5----------------|------------------|
    --10----------------|------------------|--7----------------|------------------|
    --11----------------|------------------|--7----------------|------------------|
    --------------------|------------------|-------------------|------------------|
    --------------------|------------------|-------------------|------------------|
    --------------------|------------------|-------------------|------------------|
    
                                                                                   
    --9-----------------|------------------|--5----------------|------------------|
    --10----------------|------------------|--7----------------|------------------|
    --11----------------|------------------|--7----------------|------------------|
    --------------------|------------------|-------------------|------------------|
    --------------------|------------------|-------------------|------------------|
    --------------------|------------------|-------------------|------------------|
    
                                                                                
    ------------------|------------------|------------------|------------------|
    ------------------|------------------|------------------|------------------|
    ------------------|------------------|------------------|------------------|
    ------------------|------------------|------------------|------------------|
    ------------------|------------------|------------------|------------------|
    ------------------|------------------|------------------|------------------|
    
                                                                                
    ------------------|------------------|------------------|------------------|
    ------------------|------------------|------------------|------------------|
    ------------------|------------------|------------------|------------------|
    ------------------|------------------|------------------|------------------|
    ------------------|------------------|------------------|------------------|
    ------------------|------------------|------------------|------------------|
    
                                                                                  
    ------------------|------------------|--9-----------------|------------------|
    ------------------|------------------|--10----------------|------------------|
    ------------------|------------------|--11----------------|------------------|
    ------------------|------------------|--------------------|------------------|
    ------------------|------------------|--------------------|------------------|
    ------------------|------------------|--------------------|------------------|
    
                                                                                   
    --5----------------|------------------|--9-----------------|------------------|
    --7----------------|------------------|--10----------------|------------------|
    --7----------------|------------------|--11----------------|------------------|
    -------------------|------------------|--------------------|------------------|
    -------------------|------------------|--------------------|------------------|
    -------------------|------------------|--------------------|------------------|
    
                                                                                 
    --5----------------|------------------|------------------|------------------|
    --7----------------|------------------|------------------|------------------|
    --7----------------|------------------|------------------|------------------|
    -------------------|------------------|------------------|------------------|
    -------------------|------------------|------------------|------------------|
    -------------------|------------------|------------------|------------------|
    
                                                                                
    ------------------|------------------|------------------|------------------|
    ------------------|------------------|------------------|------------------|
    ------------------|------------------|------------------|------------------|
    ------------------|------------------|------------------|------------------|
    ------------------|------------------|------------------|------------------|
    ------------------|------------------|------------------|------------------|
    
                                                                                
    ------------------|------------------|------------------|------------------|
    ------------------|------------------|------------------|------------------|
    ------------------|------------------|------------------|------------------|
    ------------------|------------------|------------------|------------------|
    ------------------|------------------|------------------|------------------|
    ------------------|------------------|------------------|------------------|
    
                                                                 
    --5----------------|--7------------5----|--4----------------|
    --7----------------|--9------------7----|--5----------------|
    --7----------------|--9------------7----|--6----------------|
    -------------------|--------------------|-------------------|
    -------------------|--------------------|-------------------|
    -------------------|--------------------|-------------------|
    
                                                                 
    --5----------------|--5----------------|--9-----------------|
    --7----------------|--7----------------|--10----------------|
    --6----------------|--7----------------|--9-----------------|
    -------------------|-------------------|--------------------|
    -------------------|-------------------|--------------------|
    -------------------|-------------------|--------------------|
    
                                                                 
    --7-----------------|-------------------|--5----------------|
    --10----------------|--9----------------|--7----------------|
    --9-----------------|-------------------|--7----------------|
    --------------------|-------------------|-------------------|
    --------------------|-------------------|-------------------|
    --------------------|-------------------|-------------------|
    
                                                                 
    --7------------5----|--4----------------|--5----------------|
    --9------------7----|--5----------------|--7----------------|
    --9------------7----|--6----------------|--6----------------|
    --------------------|-------------------|-------------------|
    --------------------|-------------------|-------------------|
    --------------------|-------------------|-------------------|
    
                                                                  
    --5----------------|--9-----------------|--9-----------------|
    --7----------------|--10----------------|--9-----------------|
    --7----------------|--9-----------------|--10----------------|
    -------------------|--------------------|--------------------|
    -------------------|--------------------|--------------------|
    -------------------|--------------------|--------------------|
    
                                                                                
    ------------------|------------------|------------------|------------------|
    ------------------|------------------|------------------|------------------|
    ------------------|------------------|------------------|------------------|
    ------------------|------------------|------------------|------------------|
    ------------------|------------------|------------------|------------------|
    ------------------|------------------|------------------|------------------|
    
                                                                                    
    ------------------|------------------|------------14----12--|------------------|
    ------------------|------------------|------------15----14--|------------------|
    ------------------|------------------|------------14----14--|------------------|
    ------------------|------------------|----------------------|------------------|
    ------------------|------------------|----------------------|------------------|
    ------------------|------------------|----------------------|------------------|
    
                                                                     
    ------------14----12--|------------------|------------14----12--|
    ------------15----14--|------------------|------------15----14--|
    ------------14----14--|------------------|------------14----14--|
    ----------------------|------------------|----------------------|
    ----------------------|------------------|----------------------|
    ----------------------|------------------|----------------------|
    
                                                                                  
    ------------------|--------------14----|------------------|------------------|
    ------------------|--------------15----|------------------|------------------|
    ------------------|--------------14----|------------------|------------------|
    ------------------|--------------------|------------------|------------------|
    ------------------|--------------------|------------------|------------------|
    ------------------|--------------------|------------------|------------------|
    
                                                                                
    ------------------|------------------|------------------|------------------|
    ------------------|------------------|------------------|------------------|
    ------------------|------------------|------------------|------------------|
    ------------------|------------------|------------------|------------------|
    ------------------|------------------|------------------|------------------|
    ------------------|------------------|------------------|------------------|
    
                                                                                
    ------------------|------------------|------------------|------------------|
    ------------------|------------------|------------------|------------------|
    ------------------|------------------|------------------|------------------|
    ------------------|------------------|------------------|------------------|
    ------------------|------------------|------------------|------------------|
    ------------------|------------------|------------------|------------------|
    
                                                                                
    
    Узнай ВСЕ о своем друге в ВК или FB
    ------------------|------------------|------------------|------------------| ------------------|------------------|------------------|------------------| ------------------|------------------|------------------|------------------| ------------------|------------------|------------------|------------------| ------------------|------------------|------------------|------------------| ------------------|------------------|------------------|------------------| ------------------|------------------|------------------|------------------| ------------------|------------------|------------------|------------------| ------------------|------------------|------------------|------------------| ------------------|------------------|------------------|------------------| ------------------|------------------|------------------|------------------| ------------------|------------------|------------------|------------------| --9-----------------|------------------|--9-----------------|------------------| --10----------------|------------------|--10----------------|------------------| --11----------------|------------------|--11----------------|------------------| --------------------|------------------|--------------------|------------------| --------------------|------------------|--------------------|------------------| --------------------|------------------|--------------------|------------------| --9-----------------|------------------|--9-----------------|----------| --10----------------|------------------|--10----------------|----------| --11----------------|------------------|--11----------------|----------| --------------------|------------------|--------------------|----------| --------------------|------------------|--------------------|----------| --------------------|------------------|--------------------|----------| ------------------|------------------|------------------|------------------| ------------------|------------------|------------------|------------------| ------------------|------------------|------------------|------------------| ------------------|------------------|------------------|------------------| ------------------|------------------|------------------|------------------| ------------------|------------------|------------------|------------------| ------------------|------------------|------------------|------------------| ------------------|------------------|------------------|------------------| ------------------|------------------|------------------|------------------| ------------------|------------------|------------------|------------------| ------------------|------------------|------------------|------------------| ------------------|------------------|------------------|------------------| ------------------|------------------|------------------|--9-----------------| ------------------|------------------|------------------|--10----------------| ------------------|------------------|------------------|--11----------------| ------------------|------------------|------------------|--------------------| ------------------|------------------|------------------|--------------------| ------------------|------------------|------------------|--------------------| ------------------|--5----------------|------------------|------------------| ------------------|--7----------------|------------------|------------------| ------------------|--7----------------|------------------|------------------| ------------------|-------------------|------------------|------------------| ------------------|-------------------|------------------|------------------| ------------------|-------------------|------------------|------------------| ------------------|------------------|------------------|------------------| ------------------|------------------|------------------|------------------| ------------------|------------------|------------------|------------------| ------------------|------------------|------------------|------------------| ------------------|------------------|------------------|------------------| ------------------|------------------|------------------|------------------| ------------------|------------------|------------------|------------------| ------------------|------------------|------------------|------------------| ------------------|------------------|------------------|------------------| ------------------|------------------|------------------|------------------| ------------------|------------------|------------------|------------------| ------------------|------------------|------------------|------------------| ------------------|--5----------------|--7------------5----|--4----------------| ------------------|--7----------------|--9------------7----|--5----------------| ------------------|--7----------------|--9------------7----|--6----------------| ------------------|-------------------|--------------------|-------------------| ------------------|-------------------|--------------------|-------------------| ------------------|-------------------|--------------------|-------------------| --5----------------|--5----------------|--9-----------------| --7----------------|--7----------------|--10----------------| --6----------------|--7----------------|--9-----------------| -------------------|-------------------|--------------------| -------------------|-------------------|--------------------| -------------------|-------------------|--------------------| --7-----------------|-------------------|--5----------------| --10----------------|--9----------------|--7----------------| --9-----------------|-------------------|--7----------------| --------------------|-------------------|-------------------| --------------------|-------------------|-------------------| --------------------|-------------------|-------------------| --7------------5----|--4----------------|--5----------------| --9------------7----|--5----------------|--7----------------| --9------------7----|--6----------------|--6----------------| --------------------|-------------------|-------------------| --------------------|-------------------|-------------------| --------------------|-------------------|-------------------| --5----------------|--9-----------------|--9-----------------| --7----------------|--10----------------|--9-----------------| --7----------------|--9-----------------|--10----------------| -------------------|--------------------|--------------------| -------------------|--------------------|--------------------| -------------------|--------------------|--------------------| ------------------|--5----------------|--7------------5----|--4----------------| ------------------|--7----------------|--9------------7----|--5----------------| ------------------|--7----------------|--9------------7----|--6----------------| ------------------|-------------------|--------------------|-------------------| ------------------|-------------------|--------------------|-------------------| ------------------|-------------------|--------------------|-------------------| --5----------------|--5----------------|--9-----------------| --7----------------|--7----------------|--10----------------| --6----------------|--7----------------|--9-----------------| -------------------|-------------------|--------------------| -------------------|-------------------|--------------------| -------------------|-------------------|--------------------| --7-----------------|-------------------|--5----------------| --10----------------|--9----------------|--7----------------| --9-----------------|-------------------|--7----------------| --------------------|-------------------|-------------------| --------------------|-------------------|-------------------| --------------------|-------------------|-------------------| --7------------5----|--4----------------|--5----------------| --9------------7----|--5----------------|--7----------------| --9------------7----|--6----------------|--6----------------| --------------------|-------------------|-------------------| --------------------|-------------------|-------------------| --------------------|-------------------|-------------------| --5----------------|--9-----------------|--9-----------------| --7----------------|--10----------------|--9-----------------| --7----------------|--9-----------------|--10----------------| -------------------|--------------------|--------------------| -------------------|--------------------|--------------------| -------------------|--------------------|--------------------| ------------------|------------------|------------------|------------------| ------------------|------------------|------------------|------------------| ------------------|------------------|------------------|------------------| ------------------|------------------|------------------|------------------| ------------------|------------------|------------------|------------------| ------------------|------------------|------------------|------------------| ------------------|| ------------------|| ------------------|| ------------------|| ------------------|| ------------------||

    найти лекарство
    список лекарств






    О сайтеАккордыХит-парадПоискУроки ФорумыИщу песню
    ПрограммыСвежачок-сПодпискаСтатьи
    Яндекс.Метрика