Табулатура Nightwish | Crownless  (2) гитара табулатуры уроки тексты песен Nightwish текст lyrics песня аккорды песни ноты нота электрогитара струна  
   А Б В Г Д Е Ж З И К Л М Н О П Р С Т У Ф Х Ч Ш Ы Э Ю Я       Разные песни
1-9 A B C D E F G H I J K L M N O P Q R S T U V W Y Z      Все исполнители in english

    



группа Nightwish, Табулатура песни Crownless (2)

Работа в Европе для граждан РФ, Украины, СНГ

  • минимальная зарплата $500.
  • виза и контракт на полгода, возможно продление
  • проживание оплачивает работодатель
  • нужен только загранпаспорт
  • оформление 190 €
  • данное предложение - отличная возможность эмигрировать в Европу и закрепиться здесь навсегда.

  • Мы свяжемся с Вами по WhatsApp или Viber и ответим на любые вопросы.
    на нашем сайте можно почитать подробнее »

    Группа: Nightwish - другие аккорды (414),   о группе (12 статей),   диски (6),   фотографии (25)
    Табулатура песни: Crownless (2)
    Просмотров: 990
    Подобрал: Forever (forever@akkords.ru)




        
                                      Crownless                                     
    
                                                             T.Holopainen/E.Vuorinen
    Guitar 2.
    
                                                                          
    E||--------------------------------|---------------------------------|
    B||--------------------------------|---------------------------------|
    G||--------------------------------|--7-------6-------4--------4-----|
    D||-----------------7--------------|----7---7---7---7---7---7----7-6-|
    A||--7-9-9-9--9-9-9---9-9-9--9-9-9-|------9-------9-------9----------|
    E||--------------------------------|---------------------------------|
    
                                                                
    -----------------------------|-----------------------------|
    -----------------------------|-----------------------------|
    -----------------------------|-----------------------------|
    -----------------7-----6-----|-----------------7-----6-----|
    --4-5-5-5--5-5-5----5-----5--|--4-5-5-5--5-5-5----5-----5--|
    -----------------------------|-----------------------------|
    
                                                                       
    --------------------------------|---------------------------------|
    --------------------------------|---------------------------------|
    --------------------------------|--7-------6-------4--------4-----|
    -----------------7--------------|----7---7---7---7---7---7----7-6-|
    --7-9-9-9--9-9-9---9-9-9--9-9-9-|------9-------9-------9----------|
    --------------------------------|---------------------------------|
    
                                                                
    -----------------------------|-----------------------------|
    -----------------------------|-----------------------------|
    -----------------------------|-----------------------------|
    -----------------7-----6-----|-----------------7-----6-----|
    --4-5-5-5--5-5-5----5-----5--|--4-5-5-5--5-5-5----5-----5--|
    -----------------------------|-----------------------------|
    
                                                                       
    --------------------------------|---------------------------------|
    --------------------------------|---------------------------------|
    --------------------------------|--7-------6-------4--------4-----|
    -----------------7--------------|----7---7---7---7---7---7----7-6-|
    --7-9-9-9--9-9-9---9-9-9--9-9-9-|------9-------9-------9----------|
    --------------------------------|---------------------------------|
    
                                                                
    -----------------------------|-----------------------------|
    -----------------------------|-----------------------------|
    -----------------------------|-----------------------------|
    -----------------7-----6-----|-----------------7-----6-----|
    --4-5-5-5--5-5-5----5-----5--|--4-5-5-5--5-5-5----5-----5--|
    -----------------------------|-----------------------------|
    
                                                                       
    --------------------------------|---------------------------------|
    --------------------------------|---------------------------------|
    --------------------------------|--7-------6-------4--------4-----|
    -----------------7--------------|----7---7---7---7---7---7----7-6-|
    --7-9-9-9--9-9-9---9-9-9--9-9-9-|------9-------9-------9----------|
    --------------------------------|---------------------------------|
    
                                                                
    -----------------------------|-----------------------------|
    -----------------------------|-----------------------------|
    -----------------------------|-----------------------------|
    -----------------7-----6-----|-----------------7-----6-----|
    --4-5-5-5--5-5-5----5-----5--|--4-5-5-5--5-5-5----5-----5--|
    -----------------------------|-----------------------------|
    
                                                                         
    ---------------------------------|----------------------------------|
    ---------------------------------|----------------------------------|
    ---------------------------------|----------------------------------|
    ---------3---4---6---7---6---4---|--6---4---3---4---3-4-3-0---------|
    --4--5-4---4---4---4---4---4---4-|----4---4---4---4---------4-2-0---|
    ---------------------------------|--------------------------------4-|
    
                                                                                
    ------------------|------------------|------------------|------------------|
    ------------------|------------------|------------------|------------------|
    ------------------|------------------|------------------|------------------|
    ------------------|------------------|------------------|------------------|
    ------------------|------------------|------------------|------------------|
    ------------------|------------------|------------------|------------------|
    
                                                                                
    ------------------|------------------|------------------|------------------|
    ------------------|------------------|------------------|------------------|
    ------------------|------------------|------------------|------------------|
    ------------------|------------------|------------------|------------------|
    ------------------|------------------|------------------|------------------|
    ------------------|------------------|------------------|------------------|
    
                                                                       
    --------------------------------|---------------------------------|
    --------------------------------|---------------------------------|
    --------------------------------|--7-------6-------4--------4-----|
    -----------------7--------------|----7---7---7---7---7---7----7-6-|
    --7-9-9-9--9-9-9---9-9-9--9-9-9-|------9-------9-------9----------|
    --------------------------------|---------------------------------|
    
                                                                
    -----------------------------|-----------------------------|
    -----------------------------|-----------------------------|
    -----------------------------|-----------------------------|
    -----------------7-----6-----|-----------------7-----6-----|
    --4-5-5-5--5-5-5----5-----5--|--4-5-5-5--5-5-5----5-----5--|
    -----------------------------|-----------------------------|
    
                                                                       
    --------------------------------|---------------------------------|
    --------------------------------|---------------------------------|
    --------------------------------|--7-------6-------4--------4-----|
    -----------------7--------------|----7---7---7---7---7---7----7-6-|
    --7-9-9-9--9-9-9---9-9-9--9-9-9-|------9-------9-------9----------|
    --------------------------------|---------------------------------|
    
                                                                
    -----------------------------|-----------------------------|
    -----------------------------|-----------------------------|
    -----------------------------|-----------------------------|
    -----------------7-----6-----|-----------------7-----6-----|
    --4-5-5-5--5-5-5----5-----5--|--4-5-5-5--5-5-5----5-----5--|
    -----------------------------|-----------------------------|
    
                                                                         
    ---------------------------------|----------------------------------|
    ---------------------------------|----------------------------------|
    ---------------------------------|----------------------------------|
    ---------3---4---6---7---6---4---|--6---4---3---4---3-4-3-0---------|
    --4--5-4---4---4---4---4---4---4-|----4---4---4---4---------4-2-0---|
    ---------------------------------|--------------------------------4-|
    
                                                                                
    ------------------|------------------|------------------|------------------|
    ------------------|------------------|------------------|------------------|
    ------------------|------------------|------------------|------------------|
    ------------------|------------------|------------------|------------------|
    ------------------|------------------|------------------|------------------|
    ------------------|------------------|------------------|------------------|
    
                                                                                
    ------------------|------------------|------------------|------------------|
    ------------------|------------------|------------------|------------------|
    ------------------|------------------|------------------|------------------|
    ------------------|------------------|------------------|------------------|
    ------------------|------------------|------------------|------------------|
    ------------------|------------------|------------------|------------------|
    
                                                                                
    ------------------|------------------|------------------|------------------|
    ------------------|------------------|------------------|------------------|
    ------------------|------------------|------------------|------------------|
    ------------------|------------------|------------------|------------------|
    ------------------|------------------|------------------|------------------|
    ------------------|------------------|------------------|------------------|
    
                                                                                
    ------------------|------------------|------------------|------------------|
    ------------------|------------------|------------------|------------------|
    ------------------|------------------|------------------|------------------|
    ------------------|------------------|------------------|------------------|
    ------------------|------------------|------------------|------------------|
    ------------------|------------------|------------------|------------------|
    
                                                                                
    ------------------|------------------|------------------|------------------|
    ------------------|------------------|------------------|------------------|
    ------------------|------------------|------------------|------------------|
    ------------------|------------------|------------------|------------------|
    ------------------|------------------|------------------|------------------|
    ------------------|------------------|------------------|------------------|
    
                                                                                
    ------------------|------------------|------------------|------------------|
    ------------------|------------------|------------------|------------------|
    ------------------|------------------|------------------|------------------|
    ------------------|------------------|------------------|------------------|
    ------------------|------------------|------------------|------------------|
    ------------------|------------------|------------------|------------------|
    
                                                                                
    ------------------|------------------|------------------|------------------|
    ------------------|------------------|------------------|------------------|
    ------------------|------------------|------------------|------------------|
    ------------------|------------------|------------------|------------------|
    ------------------|------------------|------------------|------------------|
    ------------------|------------------|------------------|------------------|
    
                                                                                
    ------------------|------------------|------------------|------------------|
    ------------------|------------------|------------------|------------------|
    ------------------|------------------|------------------|------------------|
    ------------------|------------------|------------------|------------------|
    ------------------|------------------|------------------|------------------|
    ------------------|------------------|------------------|------------------|
    
                                                                                
    ------------------|------------------|------------------|------------------|
    ------------------|------------------|------------------|------------------|
    ------------------|------------------|------------------|------------------|
    ------------------|------------------|------------------|------------------|
    ------------------|------------------|------------------|------------------|
    ------------------|------------------|------------------|------------------|
    
                                                                                
    ------------------|------------------|------------------|------------------|
    ------------------|------------------|------------------|------------------|
    ------------------|------------------|------------------|------------------|
    ------------------|------------------|------------------|------------------|
    ------------------|------------------|------------------|------------------|
    ------------------|------------------|------------------|------------------|
    
                                                                                
    ------------------|------------------|------------------|------------------|
    ------------------|------------------|------------------|------------------|
    ------------------|------------------|------------------|------------------|
    ------------------|------------------|------------------|------------------|
    ------------------|------------------|------------------|------------------|
    ------------------|------------------|------------------|------------------|
    
                                                                         
    ------------------|------------------|--14---12-----------------14--|
    ------------------|------------------|------------15--15---17-------|
    ------------------|------------------|------------------------------|
    ------------------|------------------|------------------------------|
    ------------------|------------------|------------------------------|
    ------------------|------------------|------------------------------|
    
                                                              
    
    Узнай ВСЕ о своем друге в ВК или FB
    --15---17-----------------|--17---16-----------------17--| ------------17--19--------|------------19--19---21-------| --------------------------|------------------------------| --------------------------|------------------------------| --------------------------|------------------------------| --------------------------|------------------------------| --19---21-------22--------|--14---12---------------------| ------------22------------|------------15--15---17---19--| --------------------------|------------------------------| --------------------------|------------------------------| --------------------------|------------------------------| --------------------------|------------------------------| --------------------------|--17---16-----------------17--| --------------------------|------------19--19---21-------| --16---14---12------------|------------------------------| ----------------16--------|------------------------------| --------------------------|------------------------------| --------------------------|------------------------------| --17-16-------17-16-------19--------|--------------------------------| --------19-17-------19-17-----------|--------------------------------| ------------------------------------|--------------------------------| ------------------------------------|-----------------7--------------| ------------------------------------|--7-9-9-9--9-9-9---9-9-9--9-9-9-| ------------------------------------|--------------------------------| ---------------------------------|--------------------------------| ---------------------------------|--------------------------------| --7-------6-------4-----2--4-2-1-|--------------------------------| ----7---7---7---7---7-4----------|-----------------7--------------| ------9-------9------------------|--7-9-9-9--9-9-9---9-9-9--9-9-9-| ---------------------------------|--------------------------------| -------------------------------|--------------------------------| -------------------------------|--------------------------------| --6------4---------------------|--------------------------------| ----7------6----7-------6------|-----------------7--------------| ------9------7----9-------8----|--7-9-9-9--9-9-9---9-9-9--9-9-9-| --------------------10------9--|--------------------------------| ---------------------------------|-------------------------------| ---------------------------------|-------------------------------| --7-------6-------4-----2--4-2-1-|--6------4---------------------| ----7---7---7---7---7------------|----7------6----7-------6------| ------9-------9-------9----------|------9------7----9-------8----| ---------------------------------|--------------------10------9--| ----------------|------------------|------------------|------------------| ----------------|------------------|------------------|------------------| ----------------|------------------|------------------|------------------| --4------3------|------------------|------------------|------------------| ----5------4----|------------------|------------------|------------------| ------7------4--|------------------|------------------|------------------| ------------------|------------------|------------------|------------------| ------------------|------------------|------------------|------------------| ------------------|------------------|------------------|------------------| ------------------|------------------|------------------|------------------| ------------------|------------------|------------------|------------------| ------------------|------------------|------------------|------------------| --------------------------------|---------------------------------| --------------------------------|---------------------------------| --------------------------------|--7-------6-------4--------4-----| -----------------7--------------|----7---7---7---7---7---7----7-6-| --7-9-9-9--9-9-9---9-9-9--9-9-9-|------9-------9-------9----------| --------------------------------|---------------------------------| -----------------------------|-----------------------------| -----------------------------|-----------------------------| -----------------------------|-----------------------------| -----------------7-----6-----|-----------------7-----6-----| --4-5-5-5--5-5-5----5-----5--|--4-5-5-5--5-5-5----5-----5--| -----------------------------|-----------------------------| --------------------------------|---------------------------------| --------------------------------|---------------------------------| --------------------------------|--7-------6-------4--------4-----| -----------------7--------------|----7---7---7---7---7---7----7-6-| --7-9-9-9--9-9-9---9-9-9--9-9-9-|------9-------9-------9----------| --------------------------------|---------------------------------| -----------------------------|-----------------------------| -----------------------------|-----------------------------| -----------------------------|-----------------------------| -----------------7-----6-----|-----------------7-----6-----| --4-5-5-5--5-5-5----5-----5--|--4-5-5-5--5-5-5----5-----5--| -----------------------------|-----------------------------| ---------------------------------|----------------------------------| ---------------------------------|----------------------------------| ---------------------------------|----------------------------------| ---------3---4---6---7---6---4---|--6---4---3---4---3-4-3-0---------| --4--5-4---4---4---4---4---4---4-|----4---4---4---4---------4-2-0---| ---------------------------------|--------------------------------4-| ------------------|------------------|------------------|------------------| ------------------|------------------|------------------|------------------| ------------------|------------------|------------------|------------------| ------------------|------------------|------------------|------------------| ------------------|------------------|------------------|------------------| ------------------|------------------|------------------|------------------| ------------------|------------------|------------------|------------------| ------------------|------------------|------------------|------------------| ------------------|------------------|------------------|------------------| ------------------|------------------|------------------|------------------| ------------------|------------------|------------------|------------------| ------------------|------------------|------------------|------------------| ---------9------7----|-----------------7----|--9-------------------| --7------------------|--9------10-----------|---------9------10----| ---------------------|----------------------|----------------------| ---------------------|----------------------|----------------------| ---------------------|----------------------|----------------------| ---------------------|----------------------|----------------------| --------------------|------------------------|--9------7------5----| --------------------|----------10------12----|---------------------| --11----------------|--11--------------------|---------------------| --------------------|------------------------|---------------------| --------------------|------------------------|---------------------| --------------------|------------------------|---------------------| --5----------------|--4----------------|---------9------7----| -------------------|-------------------|--7------------------| -------------------|-------------------|---------------------| -------------------|-------------------|---------------------| -------------------|-------------------|---------------------| -------------------|-------------------|---------------------| -----------------7----|--9-------------------|--------------------| --9------10-----------|---------9------10----|--------------------| ----------------------|----------------------|--11----------------| ----------------------|----------------------|--------------------| ----------------------|----------------------|--------------------| ----------------------|----------------------|--------------------| ------------------------|--9------7------------|--9----------------| ----------10------12----|----------------10----|-------------------| --11--------------------|----------------------|-------------------| ------------------------|----------------------|-------------------| ------------------------|----------------------|-------------------| ------------------------|----------------------|-------------------| ------------------|---------9------7----|-----------------7----| ------------------|--7------------------|--9------10-----------| ------------------|---------------------|----------------------| ------------------|---------------------|----------------------| ------------------|---------------------|----------------------| ------------------|---------------------|----------------------| --9-------------------|--------------------|------------------------| ---------9------10----|--------------------|----------10------12----| ----------------------|--11----------------|--11--------------------| ----------------------|--------------------|------------------------| ----------------------|--------------------|------------------------| ----------------------|--------------------|------------------------| --9------7------5----|--5----------------|--4----------------| ---------------------|-------------------|-------------------| ---------------------|-------------------|-------------------| ---------------------|-------------------|-------------------| ---------------------|-------------------|-------------------| ---------------------|-------------------|-------------------| ---------9------7----|-----------------7----|--9-------------------| --7------------------|--9------10-----------|---------9------10----| ---------------------|----------------------|----------------------| ---------------------|----------------------|----------------------| ---------------------|----------------------|----------------------| ---------------------|----------------------|----------------------| --------------------|------------------------|--9------7------------| --------------------|----------10------12----|----------------10----| --11----------------|--11--------------------|----------------------| --------------------|------------------------|----------------------| --------------------|------------------------|----------------------| --------------------|------------------------|----------------------| --9----------------|------------------|------------------|------------------| -------------------|------------------|------------------|------------------| -------------------|------------------|------------------|------------------| -------------------|------------------|------------------|------------------| -------------------|------------------|------------------|------------------| -------------------|------------------|------------------|------------------| ------------------|------------------|| ------------------|------------------|| ------------------|------------------|| ------------------|------------------|| ------------------|------------------|| ------------------|------------------||

    лекарство в аптеке
    список лекарств






    О сайтеАккордыХит-парадПоискУроки ФорумыИщу песню
    ПрограммыСвежачок-сПодпискаСтатьи
    Яндекс.Метрика