Табулатура Nightwish | Beauty And The Beast  (3) гитара табулатуры уроки тексты песен Nightwish текст lyrics песня аккорды песни ноты нота электрогитара струна  
   А Б В Г Д Е Ж З И К Л М Н О П Р С Т У Ф Х Ч Ш Ы Э Ю Я       Разные песни
1-9 A B C D E F G H I J K L M N O P Q R S T U V W Y Z      Все исполнители in english

    



группа Nightwish, Табулатура песни Beauty And The Beast (3)

Работа в Европе для граждан РФ, Украины, СНГ

  • минимальная зарплата $500.
  • виза и контракт на полгода, возможно продление
  • проживание оплачивает работодатель
  • нужен только загранпаспорт
  • оформление 190 €
  • данное предложение - отличная возможность эмигрировать в Европу и закрепиться здесь навсегда.

  • Мы свяжемся с Вами по WhatsApp или Viber и ответим на любые вопросы.
    на нашем сайте можно почитать подробнее »

    Группа: Nightwish - другие аккорды (414),   о группе (12 статей),   диски (6),   фотографии (25)
    Табулатура песни: Beauty And The Beast (3)
    Просмотров: 1333
    Подобрал: Forever (forever@akkords.ru)




        
                                 Beauty And The Beast                               
    
                                                                       T. Holopainen
    Keyboard 2.
    speed gets faster on start and slower on bar 126
    
                                                                               
    E||------------------|------------------|------------------|--------------|
    B||------------------|------------------|------------------|--------------|
    G||------------------|------------------|------------------|--------------|
    D||------------------|------------------|------------------|--------------|
    A||------------------|------------------|------------------|--------------|
    E||------------------|------------------|------------------|--------------|
    
                                                                            
    ------------------|------------------|------------------|--------------|
    ------------------|------------------|------------------|--------------|
    ------------------|------------------|------------------|--------------|
    ------------------|------------------|------------------|--------------|
    ------------------|------------------|------------------|--------------|
    ------------------|------------------|------------------|--------------|
    
                                                                            
    ------------------|------------------|------------------|--------------|
    ------------------|------------------|------------------|--------------|
    ------------------|------------------|------------------|--------------|
    ------------------|------------------|------------------|--------------|
    ------------------|------------------|------------------|--------------|
    ------------------|------------------|------------------|--------------|
    
                                                                            
    ------------------|------------------|------------------|--------------|
    ------------------|------------------|------------------|--------------|
    ------------------|------------------|------------------|--------------|
    ------------------|------------------|------------------|--------------|
    ------------------|------------------|------------------|--------------|
    ------------------|------------------|------------------|--------------|
    
                                                                            
    ------------------|------------------|------------------|--------------|
    ------------------|------------------|------------------|--------------|
    ------------------|------------------|------------------|--------------|
    ------------------|------------------|------------------|--------------|
    ------------------|------------------|------------------|--------------|
    ------------------|------------------|------------------|--------------|
    
                                                                            
    ------------------|------------------|------------------|--------------|
    ------------------|------------------|------------------|--------------|
    ------------------|------------------|------------------|--------------|
    ------------------|------------------|------------------|--------------|
    ------------------|------------------|------------------|--------------|
    ------------------|------------------|------------------|--------------|
    
                                                                            
    ------------------|------------------|------------------|--------------|
    ------------------|------------------|------------------|--------------|
    ------------------|------------------|------------------|--------------|
    ------------------|------------------|------------------|--------------|
    ------------------|------------------|------------------|--------------|
    ------------------|------------------|------------------|--------------|
    
                                                                            
    ------------------|------------------|------------------|--------------|
    ------------------|------------------|------------------|--------------|
    ------------------|------------------|------------------|--------------|
    ------------------|------------------|------------------|--------------|
    ------------------|------------------|------------------|--------------|
    ------------------|------------------|------------------|--------------|
    
                                                                                
    ------------------|------------------|------------------|------------------|
    ------------------|------------------|------------------|------------------|
    ------------------|------------------|------------------|------------------|
    ------------------|------------------|------------------|------------------|
    ------------------|------------------|------------------|------------------|
    ------------------|------------------|------------------|------------------|
    
                                                                                
    ------------------|------------------|------------------|------------------|
    ------------------|------------------|------------------|------------------|
    ------------------|------------------|------------------|------------------|
    ------------------|------------------|------------------|------------------|
    ------------------|------------------|------------------|------------------|
    ------------------|------------------|------------------|------------------|
    
                                                 
    --------------------------------------------|
    --10---12---13---10---12---13---15-13-12-13-|
    -----9----9----9----9----9----9-------------|
    --------------------------------------------|
    --------------------------------------------|
    --------------------------------------------|
    
                                                       
    --------------------------------------------------|
    --10----12----13----10----12----13----15-13-12-13-|
    -----10----10----10----10----10----10-------------|
    --------------------------------------------------|
    --------------------------------------------------|
    --------------------------------------------------|
    
                                                
    -------------------------------------------|
    --12---10---8---10---12---13---15-13-12-13-|
    -----7----7---7----7----7----7-------------|
    -------------------------------------------|
    -------------------------------------------|
    -------------------------------------------|
    
                                                    
    -----------------------------------------------|
    --15----10----15----10-15-12---10---12-10-9-10-|
    -----10----10----10----------9----9------------|
    -----------------------------------------------|
    -----------------------------------------------|
    -----------------------------------------------|
    
                                                 
    --------------------------------------------|
    --10---12---13---10---12---13---15-13-12-13-|
    -----9----9----9----9----9----9-------------|
    --------------------------------------------|
    --------------------------------------------|
    --------------------------------------------|
    
                                                       
    --------------------------------------------------|
    --10----12----13----10----12----13----15-13-12-13-|
    -----10----10----10----10----10----10-------------|
    --------------------------------------------------|
    --------------------------------------------------|
    --------------------------------------------------|
    
                                                
    -------------------------------------------|
    --12---10---8---10---12---13---15-13-12-13-|
    -----7----7---7----7----7----7-------------|
    -------------------------------------------|
    -------------------------------------------|
    -------------------------------------------|
    
                                                       
    --------------------------------------------------|
    --17----13----17----13-17-15----12----15-13-12-15-|
    -----12----12----12----------12----12-------------|
    --------------------------------------------------|
    --------------------------------------------------|
    --------------------------------------------------|
    
                                                 
    --------------------------------------------|
    --10---12---13---10---12---13---15-13-12-13-|
    -----9----9----9----9----9----9-------------|
    --------------------------------------------|
    --------------------------------------------|
    --------------------------------------------|
    
                                                       
    --------------------------------------------------|
    --10----12----13----10----12----13----15-13-12-13-|
    -----10----10----10----10----10----10-------------|
    --------------------------------------------------|
    --------------------------------------------------|
    --------------------------------------------------|
    
                                                
    -------------------------------------------|
    --12---10---8---10---12---13---15-13-12-13-|
    -----7----7---7----7----7----7-------------|
    -------------------------------------------|
    -------------------------------------------|
    -------------------------------------------|
    
                                                    
    -----------------------------------------------|
    --15----10----15----10-15-12---10---12-10-9-10-|
    -----10----10----10----------9----9------------|
    -----------------------------------------------|
    -----------------------------------------------|
    -----------------------------------------------|
    
                                                 
    --------------------------------------------|
    --10---12---13---10---12---13---15-13-12-13-|
    -----9----9----9----9----9----9-------------|
    --------------------------------------------|
    --------------------------------------------|
    --------------------------------------------|
    
                                                       
    --------------------------------------------------|
    --10----12----13----10----12----13----15-13-12-13-|
    -----10----10----10----10----10----10-------------|
    --------------------------------------------------|
    --------------------------------------------------|
    --------------------------------------------------|
    
                                                
    -------------------------------------------|
    --12---10---8---10---12---13---15-13-12-13-|
    -----7----7---7----7----7----7-------------|
    -------------------------------------------|
    -------------------------------------------|
    -------------------------------------------|
    
                                                                          
    --------------------------------------------------|------------------|
    --17----13----17----13-17-15----12----15-13-12-15-|------------------|
    -----12----12----12----------12----12-------------|------------------|
    --------------------------------------------------|------------------|
    --------------------------------------------------|------------------|
    --------------------------------------------------|------------------|
    
                                                                                
    ------------------|------------------|------------------|------------------|
    ------------------|------------------|------------------|------------------|
    ------------------|------------------|------------------|------------------|
    ------------------|------------------|------------------|------------------|
    ------------------|------------------|------------------|------------------|
    ------------------|------------------|------------------|------------------|
    
                                                             
    ------------------|------------------|------------------|
    ------------------|------------------|------------------|
    ------------------|------------------|------------------|
    ------------------|------------------|------------------|
    ------------------|------------------|------------------|
    ------------------|------------------|------------------|
    
                                                 
    --------------------------------------------|
    --10---12---13---10---12---13---15-13-12-13-|
    -----9----9----9----9----9----9-------------|
    --------------------------------------------|
    --------------------------------------------|
    --------------------------------------------|
    
                                                       
    --------------------------------------------------|
    --10----12----13----10----12----13----15-13-12-13-|
    -----10----10----10----10----10----10-------------|
    --------------------------------------------------|
    --------------------------------------------------|
    --------------------------------------------------|
    
                                                
    -------------------------------------------|
    --12---10---8---10---12---13---15-13-12-13-|
    -----7----7---7----7----7----7-------------|
    -------------------------------------------|
    -------------------------------------------|
    -------------------------------------------|
    
                                                    
    -----------------------------------------------|
    --15----10----15----10-15-12---10---12-10-9-10-|
    -----10----10----10----------9----9------------|
    -----------------------------------------------|
    -----------------------------------------------|
    -----------------------------------------------|
    
                                                 
    --------------------------------------------|
    --10---12---13---10---12---13---15-13-12-13-|
    -----9----9----9----9----9----9-------------|
    --------------------------------------------|
    --------------------------------------------|
    --------------------------------------------|
    
    
    Узнай ВСЕ о своем друге в ВК или FB
    --------------------------------------------------| --10----12----13----10----12----13----15-13-12-13-| -----10----10----10----10----10----10-------------| --------------------------------------------------| --------------------------------------------------| --------------------------------------------------| -------------------------------------------| --12---10---8---10---12---13---15-13-12-13-| -----7----7---7----7----7----7-------------| -------------------------------------------| -------------------------------------------| -------------------------------------------| --------------------------------------------------|------------------| --17----13----17----13-17-15----12----15-13-12-15-|------------------| -----12----12----12----------12----12-------------|------------------| --------------------------------------------------|------------------| --------------------------------------------------|------------------| --------------------------------------------------|------------------| ------------------|------------------|------------------|------------------| ------------------|------------------|------------------|------------------| ------------------|------------------|------------------|------------------| ------------------|------------------|------------------|------------------| ------------------|------------------|------------------|------------------| ------------------|------------------|------------------|------------------| ------------------|------------------|------------------|------------------| ------------------|------------------|------------------|------------------| ------------------|------------------|------------------|------------------| ------------------|------------------|------------------|------------------| ------------------|------------------|------------------|------------------| ------------------|------------------|------------------|------------------| ------------------|------------------|------------------|------------------| ------------------|------------------|------------------|------------------| ------------------|------------------|------------------|------------------| ------------------|------------------|------------------|------------------| ------------------|------------------|------------------|------------------| ------------------|------------------|------------------|------------------| ------------------|------------------|------------------|------------------| ------------------|------------------|------------------|------------------| ------------------|------------------|------------------|------------------| ------------------|------------------|------------------|------------------| ------------------|------------------|------------------|------------------| ------------------|------------------|------------------|------------------| ------------------|------------------|------------------|------------------| ------------------|------------------|------------------|------------------| ------------------|------------------|------------------|------------------| ------------------|------------------|------------------|------------------| ------------------|------------------|------------------|------------------| ------------------|------------------|------------------|------------------| ------------------|------------------|------------------|------------------| ------------------|------------------|------------------|------------------| ------------------|------------------|------------------|------------------| ------------------|------------------|------------------|------------------| ------------------|------------------|------------------|------------------| ------------------|------------------|------------------|------------------| ------------------|------------------|------------------|------------------| ------------------|------------------|------------------|------------------| ------------------|------------------|------------------|------------------| ------------------|------------------|------------------|------------------| ------------------|------------------|------------------|------------------| ------------------|------------------|------------------|------------------| ------------------|------------------|------------------|------------------| ------------------|------------------|------------------|------------------| ------------------|------------------|------------------|------------------| ------------------|------------------|------------------|------------------| ------------------|------------------|------------------|------------------| ------------------|------------------|------------------|------------------| ------------------|------------------|------------------|------------------| ------------------|------------------|------------------|------------------| ------------------|------------------|------------------|------------------| ------------------|------------------|------------------|------------------| ------------------|------------------|------------------|------------------| ------------------|------------------|------------------|------------------| ------------------|------------------|------------------|------------------| ------------------|------------------|------------------|------------------| ------------------|------------------|------------------|------------------| ------------------|------------------|------------------|------------------| ------------------|------------------|------------------|------------------| ------------------|------------------|------------------|------------------| ------------------|------------------|------------------|------------------| ------------------|------------------|------------------|------------------| ------------------|------------------|------------------|------------------| ------------------|------------------|------------------|------------------| ------------------|------------------|------------------|------------------| ------------------|------------------|------------------|------------------| ------------------|------------------|------------------|------------------| ------------------|------------------|------------------|------------------| ------------------|------------------|------------------|------------------| ------------------|------------------|------------------|------------------| ------------------|------------------|------------------|------------------| ------------------|------------------|------------------|------------------| ------------------|------------------|------------------|----------| ------------------|------------------|------------------|----------| ------------------|------------------|------------------|----------| ------------------|------------------|------------------|----------| ------------------|------------------|------------------|----------| ------------------|------------------|------------------|----------| ------------------|------------------|------------------|------------------| ------------------|------------------|------------------|------------------| ------------------|------------------|------------------|------------------| ------------------|------------------|------------------|------------------| ------------------|------------------|------------------|------------------| ------------------|------------------|------------------|------------------| ------------------|------------------|------------------|------------------| ------------------|------------------|------------------|------------------| ------------------|------------------|------------------|------------------| ------------------|------------------|------------------|------------------| ------------------|------------------|------------------|------------------| ------------------|------------------|------------------|------------------| ------------------|------------------|------------------|------------------| ------------------|------------------|------------------|------------------| ------------------|------------------|------------------|------------------| ------------------|------------------|------------------|------------------| ------------------|------------------|------------------|------------------| ------------------|------------------|------------------|------------------| ------------------|------------------|------------------|------------------| ------------------|------------------|------------------|------------------| ------------------|------------------|------------------|------------------| ------------------|------------------|------------------|------------------| ------------------|------------------|------------------|------------------| ------------------|------------------|------------------|------------------| ------------------|------------------|------------------|------------------| ------------------|------------------|------------------|------------------| ------------------|------------------|------------------|------------------| ------------------|------------------|------------------|------------------| ------------------|------------------|------------------|------------------| ------------------|------------------|------------------|------------------| ------------------|------------------|------------------| ------------------|------------------|------------------| ------------------|------------------|------------------| ------------------|------------------|------------------| ------------------|------------------|------------------| ------------------|------------------|------------------| --19-17-15-14-12--12--12--12-14-15--17--|--19----19-20-19-17-19--19-20-22--20--| ----------------------------------------|--------------------------------------| ----------------------------------------|--------------------------------------| ----------------------------------------|--------------------------------------| ----------------------------------------|--------------------------------------| ----------------------------------------|--------------------------------------| --19-20-19-17-19-19---------19-20-19-17-19-20-| --------------------17--17--------------------| ----------------------------------------------| ----------------------------------------------| ----------------------------------------------| ----------------------------------------------| --22-20-19-17-19-------------14-15--14-12-| ------------------17--17--17--------------| ------------------------------------------| ------------------------------------------| ------------------------------------------| ------------------------------------------| --19-17-15-14-12--12--12----12-14-15-17-|--19----19-20-19-17-19--19-20-22--20--| ----------------------------------------|--------------------------------------| ----------------------------------------|--------------------------------------| ----------------------------------------|--------------------------------------| ----------------------------------------|--------------------------------------| ----------------------------------------|--------------------------------------| --19-20-19-17-19-19---------19-20-19-17-19-20-| --------------------17--17--------------------| ----------------------------------------------| ----------------------------------------------| ----------------------------------------------| ----------------------------------------------| --22-20-19-17-19-------------14-15--17--|------------------|------------------| ------------------17--17--17------------|------------------|------------------| ----------------------------------------|------------------|------------------| ----------------------------------------|------------------|------------------| ----------------------------------------|------------------|------------------| ----------------------------------------|------------------|------------------| ------------------|------------------|------------------|------------------| ------------------|------------------|------------------|------------------| ------------------|------------------|------------------|------------------| ------------------|------------------|------------------|------------------| ------------------|------------------|------------------|------------------| ------------------|------------------|------------------|------------------| ------------------|------------------|------------------|------------------| ------------------|------------------|------------------|------------------| ------------------|------------------|------------------|------------------| ------------------|------------------|------------------|------------------| ------------------|------------------|------------------|------------------| ------------------|------------------|------------------|------------------| ------------------|------------------|------------------|------------------| ------------------|------------------|------------------|------------------| ------------------|------------------|------------------|------------------| ------------------|------------------|------------------|------------------| ------------------|------------------|------------------|------------------| ------------------|------------------|------------------|------------------| ------------------|------------------|------------------|------------------| ------------------|------------------|------------------|------------------| ------------------|------------------|------------------|------------------| ------------------|------------------|------------------|------------------| ------------------|------------------|------------------|------------------| ------------------|------------------|------------------|------------------| ------------------|| ------------------|| ------------------|| ------------------|| ------------------|| ------------------||

    поиск лекарств
    список лекарств






    О сайтеАккордыХит-парадПоискУроки ФорумыИщу песню
    ПрограммыСвежачок-сПодпискаСтатьи
    Яндекс.Метрика