Табулатура Nightwish | Beauty And The Beast  (2) гитара табулатуры уроки тексты песен Nightwish текст lyrics песня аккорды песни ноты нота электрогитара струна  
   А Б В Г Д Е Ж З И К Л М Н О П Р С Т У Ф Х Ч Ш Ы Э Ю Я       Разные песни
1-9 A B C D E F G H I J K L M N O P Q R S T U V W Y Z      Все исполнители in english

    



группа Nightwish, Табулатура песни Beauty And The Beast (2)

Работа в Европе для граждан РФ, Украины, СНГ

  • минимальная зарплата $500.
  • виза и контракт на полгода, возможно продление
  • проживание оплачивает работодатель
  • нужен только загранпаспорт
  • оформление 190 €
  • данное предложение - отличная возможность эмигрировать в Европу и закрепиться здесь навсегда.

  • Мы свяжемся с Вами по WhatsApp или Viber и ответим на любые вопросы.
    на нашем сайте можно почитать подробнее »

    Группа: Nightwish - другие аккорды (414),   о группе (12 статей),   диски (6),   фотографии (25)
    Табулатура песни: Beauty And The Beast (2)
    Просмотров: 1964
    Подобрал: Forever (forever@akkords.ru)




        
                                 Beauty And The Beast                               
    
                                                                       T. Holopainen
    Guitar 2.
    speed gets faster on start and slower on bar 126
    
                                                                                 
    E||------------------|------------------|------------------|----------------|
    B||------------------|------------------|------------------|----------------|
    G||------------------|------------------|------------------|------5----7----|
    D||------------------|------------------|------------------|------5----7----|
    A||------------------|------------------|------------------|------3----5----|
    E||------------------|------------------|------------------|----------------|
    
                                                                               
    -------------------|------------------|------------------|----------------|
    -------------------|------------------|------------------|----------------|
    -------------------|------------------|------------------|------5----7----|
    --2----------------|------------------|------------------|------5----7----|
    --2----------------|------------------|------------------|------3----5----|
    --0----------------|------------------|------------------|----------------|
    
                                                                               
    -------------------|------------------|------------------|----------------|
    -------------------|------------------|------------------|----------------|
    -------------------|------------------|------------------|------5----7----|
    --2----------------|------------------|------------------|------5----7----|
    --2----------------|------------------|------------------|------3----5----|
    --0----------------|------------------|------------------|----------------|
    
                                                                               
    -------------------|------------------|------------------|----------------|
    -------------------|------------------|------------------|----------------|
    -------------------|------------------|------------------|------5----7----|
    --2----------------|------------------|------------------|------5----7----|
    --2----------------|------------------|------------------|------3----5----|
    --0----------------|------------------|------------------|----------------|
    
                                                                          
    ----------------------------------|----------------------------------|
    ----------------------------------|----------------------------------|
    ----------------------------------|----------------------------------|
    ----------------------------------|----------------------------------|
    ----------------------------------|----------------------------------|
    --3-3-3-3-3-3-3-3-3-3-3-3-3-3-3-3-|--3-3-3-3-3-3-3-3-3-3-3-3-3-3-3-3-|
    
                                                            
    ----------------------------------|--------------------|
    ----------------------------------|--------------------|
    ----------------------------------|----------8----5----|
    ----------------------------------|----------8----5----|
    ----------------------------------|----------6----3----|
    --3-3-3-3-3-3-3-3-3-3-3-3-3-3-3-3-|--3-3-3-3-----------|
    
                                                                          
    ----------------------------------|----------------------------------|
    ----------------------------------|----------------------------------|
    ----------------------------------|----------------------------------|
    ----------------------------------|----------------------------------|
    ----------------------------------|----------------------------------|
    --3-3-3-3-3-3-3-3-3-3-3-3-3-3-3-3-|--3-3-3-3-3-3-3-3-3-3-3-3-3-3-3-3-|
    
                                                            
    ----------------------------------|--------------------|
    ----------------------------------|--------------------|
    ----------------------------------|----------8----5----|
    ----------------------------------|----------8----5----|
    ----------------------------------|----------6----3----|
    --3-3-3-3-3-3-3-3-3-3-3-3-3-3-3-3-|--3-3-3-3-----------|
    
                                                                
    --------------------------|--------------------------------|
    --------------------------|--------------------------------|
    --------------------------|--------------------------------|
    --------------------------|--------------------------------|
    -----2--0-----------0--2--|-----2--0-----3--2--0-----------|
    --0--------3--2--3--------|--0--------3-----------3--2--0--|
    
                                                                           
    --------------------------|----------------|--------------------------|
    --------------------------|----------------|--------------------------|
    --------------------------|------5----7----|--------------------------|
    --------------------------|------5----7----|--------------------------|
    -----2--0-----------0--2--|------3----5----|-----2--0-----------0--2--|
    --0--------3--2--3--------|----------------|--0--------3--2--3--------|
    
                                                                                 
    --------------------------------|--------------------------|----------------|
    --------------------------------|--------------------------|----------------|
    --------------------------------|--------------------------|------5----7----|
    --------------------------------|--------------------------|------5----7----|
    -----2--0-----3--2--0-----------|-----2--0-----------0--2--|------3----5----|
    --0--------3-----------3--2--0--|--0--------3--2--3--------|----------------|
    
                                                                               
    ------------------------|------------------------|------------------------|
    ------------------------|------------------------|------------------------|
    --8----10----8----10----|--8----10----8----10----|--8----10----8----10----|
    --8----10----8----10----|--8----10----8----10----|--8----10----8----10----|
    --6----8-----6----8-----|--6----8-----6----8-----|--6----8-----6----8-----|
    ------------------------|------------------------|------------------------|
    
                                                                               
    ------------------------|------------------------|------------------------|
    ------------------------|------------------------|------------------------|
    --8----10----8----10----|--8----10----8----10----|--8----10----8----10----|
    --8----10----8----10----|--8----10----8----10----|--8----10----8----10----|
    --6----8-----6----8-----|--6----8-----6----8-----|--6----8-----6----8-----|
    ------------------------|------------------------|------------------------|
    
                                                                     
    ------------------------|-------------------|-------------------|
    ------------------------|-------------------|-------------------|
    --8----10----8----10----|-------------------|-------------------|
    --8----10----8----10----|--8----------------|--2----------------|
    --6----8-----6----8-----|--8----------------|--0----------------|
    ------------------------|--6----------------|-------------------|
    
                                                                  
    -------------------|--------------------|--------------------|
    -------------------|--------------------|--------------------|
    -------------------|--------------------|--------------------|
    -------------------|--------------------|--7--------9--------|
    --3----------------|--5--5--------------|--5--------7--------|
    --1----------------|--3--3--------------|--------------------|
    
                                                                
    -------------------|-------------------|-------------------|
    -------------------|-------------------|-------------------|
    -------------------|-------------------|-------------------|
    --2----------------|-------------------|-------------------|
    --0----------------|--3----------------|--5----------------|
    -------------------|--1----------------|--3----------------|
    
                                                        
    --------------------|------------------------------|
    --------------------|------------------------------|
    --------------------|------------------------------|
    --5-----------------|--2------2------2------2------|
    --3--------5--------|--0--0-0-0--0-0-0--0-0-0--0-0-|
    -----------3--------|------------------------------|
    
                                                                    
    --------------------------------|------------------------------|
    --------------------------------|------------------------------|
    --------------------------------|------------------------------|
    --------------------------------|------------------------------|
    --3------3------3------5--3--2--|--5------5------5------5------|
    --1--1-1-1--1-1-1--1-1----------|--3--3-3-3--3-3-3--3-3-3--3-3-|
    
                                                             
    -------------------------|------------------------------|
    -------------------------|------------------------------|
    -------------------------|------------------------------|
    --7----------------------|--2------2------2------2------|
    --5--------5--7-7-5--7-7-|--0--0-0-0--0-0-0--0-0-0--0-0-|
    -------------------------|------------------------------|
    
                                                                    
    --------------------------------|------------------------------|
    --------------------------------|------------------------------|
    --------------------------------|------------------------------|
    --------------------------------|------------------------------|
    --3------3------3------5--3--2--|--5------5------5------5------|
    --1--1-1-1--1-1-1--1-1----------|--3--3-3-3--3-3-3--3-3-3--3-3-|
    
                                                                 
    --------------------|-------------------|-------------------|
    --------------------|-------------------|-------------------|
    --------------------|-------------------|--2----------------|
    --5-----------------|--2----------------|--0----------------|
    --3--------5--------|--0----------------|-------------------|
    -----------3--------|-------------------|-------------------|
    
                                                                    
    -------------------|------------------------|------------------|
    -------------------|------------------------|------------------|
    -------------------|------------------------|------------------|
    -------------------|--2------------------2--|------------------|
    --3----------------|--0--------5-5--5-5--0--|------------------|
    --1----------------|-----------3-3--3-3-----|------------------|
    
                                                                    
    -------------------|-------------------|-----------------------|
    -------------------|-------------------|-----------------------|
    --2----------------|-------------------|-----------------------|
    --0----------------|-------------------|--2--------------------|
    -------------------|--3----------------|--0--------5-5--5-5----|
    -------------------|--1----------------|-----------3-3--3-3----|
    
                                                                    
    ------------------------------|--------------------------------|
    ------------------------------|--------------------------------|
    ------------------------------|--------------------------------|
    --2------2------2------2------|--------------------------------|
    --0--0-0-0--0-0-0--0-0-0--0-0-|--3------3------3------5--3--2--|
    ------------------------------|--1--1-1-1--1-1-1--1-1----------|
    
                                                             
    ------------------------------|-------------------------|
    ------------------------------|-------------------------|
    ------------------------------|--2----------------------|
    ------------------------------|--0----------------------|
    --5------5------5------5------|-----------5--7-7-5--7-7-|
    --3--3-3-3--3-3-3--3-3-3--3-3-|-------------------------|
    
                                                                    
    ------------------------------|--------------------------------|
    ------------------------------|--------------------------------|
    ------------------------------|--------------------------------|
    --2------2------2------2------|--------------------------------|
    --0--0-0-0--0-0-0--0-0-0--0-0-|--3------3------3------5--3--2--|
    ------------------------------|--1--1-1-1--1-1-1--1-1----------|
    
                                                                            
    ------------------------------|--------------------|-------------------|
    ------------------------------|--------------------|-------------------|
    ------------------------------|--------------------|-------------------|
    ------------------------------|--5-----------------|--2----------------|
    --5------5------5------5------|--3--------5--------|--0----------------|
    --3--3-3-3--3-3-3--3-3-3--3-3-|-----------3--------|-------------------|
    
                                                                     
    -------------------|-------------------|------------------------|
    -------------------|-------------------|------------------------|
    --2----------------|-------------------|------------------------|
    --0----------------|-------------------|--2------------------2--|
    -------------------|--3----------------|--0--------5-5--5-5--0--|
    -------------------|--1----------------|-----------3-3--3-3-----|
    
                                                               
    ------------------|-------------------|-------------------|
    ------------------|-------------------|-------------------|
    ------------------|--2----------------|-------------------|
    ------------------|--0----------------|-------------------|
    ------------------|-------------------|--3----------------|
    ------------------|-------------------|--1----------------|
    
                                                                  
    -----------------------|------------------|------------------|
    -----------------------|------------------|------------------|
    -----------------------|------------------|------------------|
    --2--------------------|------------------|------------------|
    --0--------5-5--5-5----|------------------|------------------|
    -----------3-3--3-3----|------------------|------------------|
    
                                                                
    ------------------|------------------|---------------------|
    ------------------|------------------|---------------------|
    ------------------|------------------|--8--------10--------|
    ------------------|------------------|--8--------10--------|
    ------------------|------------------|--6--------8---------|
    ------------------|------------------|---------------------|
    
                                                                      
    ---------------------|---------------------|---------------------|
    ---------------------|---------------------|---------------------|
    --8--------10--------|--8--------10--------|--8--------10--------|
    
    Узнай ВСЕ о своем друге в ВК или FB
    --8--------10--------|--8--------10--------|--8--------10--------| --6--------8---------|--6--------8---------|--6--------8---------| ---------------------|---------------------|---------------------| -------------------|------------------|------------------|------------------| -------------------|------------------|------------------|------------------| -------------------|------------------|------------------|------------------| --8----------------|------------------|------------------|------------------| --8----------------|------------------|------------------|------------------| --6----------------|------------------|------------------|------------------| ------------------|------------------|------------------|------------------| ------------------|------------------|------------------|------------------| ------------------|------------------|------------------|------------------| ------------------|------------------|------------------|------------------| ------------------|------------------|------------------|------------------| ------------------|------------------|------------------|------------------| ------------------|----------6----8----|------------------|------------------| ------------------|--------------------|------------------|------------------| ------------------|--------------------|------------------|------------------| ------------------|--------------------|------------------|------------------| ------------------|--------------------|------------------|------------------| ------------------|--------------------|------------------|------------------| ------------------|----------9------11--8--|--11----9------8--9--11--| ------------------|-------------11---------|-------------------------| ------------------|------------------------|-------------------------| ------------------|------------------------|-------------------------| ------------------|------------------------|-------------------------| ------------------|------------------------|-------------------------| --14------13--11----------|------------------------|--------------------| --------------------14----|--14------------13--14--|--13----------------| --------------------------|------------------------|--------------------| --------------------------|------------------------|--------------------| --------------------------|------------------------|--------------------| --------------------------|------------------------|--------------------| -------------------|-------------------|-------------------|-------------------| -------------------|-------------------|-------------------|-------------------| -------------------|-------------------|-------------------|-------------------| -------------------|-------------------|--3----------------|-------------------| --5----------------|--3----------------|--1----------------|--3----------------| --3----------------|--1----------------|-------------------|--1----------------| -------------------|-------------------|-------------------| -------------------|-------------------|-------------------| -------------------|-------------------|-------------------| -------------------|-------------------|--5----------------| --5----------------|--3----------------|--3----------------| --3----------------|--1----------------|-------------------| --------------------|-------------------|-------------------| --------------------|-------------------|-------------------| --------------------|-------------------|-------------------| --3--------5--------|-------------------|-------------------| --1--------3--------|--5----------------|--3----------------| --------------------|--3----------------|--1----------------| -------------------|-------------------|-------------------|-------------------| -------------------|-------------------|-------------------|-------------------| -------------------|-------------------|-------------------|-------------------| --3----------------|-------------------|-------------------|-------------------| --1----------------|--3----------------|--5----------------|--3----------------| -------------------|--1----------------|--3----------------|--1----------------| -------------------|--------------------|-------------------|------------------| -------------------|--------------------|-------------------|------------------| -------------------|--------------------|-------------------|------------------| --5----------------|--3--------5--------|-------------------|------------------| --3----------------|--1--------3--------|--5----------------|------------------| -------------------|--------------------|--3----------------|------------------| -----------|-------------------|------------------|------------------| -----------|-------------------|------------------|------------------| -----------|-------------------|------------------|------------------| -----------|-------------------|------------------|------------------| --4--------|--2----------------|------------------|------------------| --2--------|--0----------------|------------------|------------------| ------------------|------------------|------------------|------------------| ------------------|------------------|------------------|------------------| ------------------|------------------|------------------|------------------| ------------------|------------------|------------------|------------------| ------------------|------------------|------------------|------------------| ------------------|------------------|------------------|------------------| ------------------------------|--------------------------| ------------------------------|--------------------------| ------------------------------|--------------------------| ------------------------------|----------------5----2----| --2--2-2-2--2-2-2--2-2-2--2-2-|--2--2-2-2--2-2-3----0----| --0--0-0-0--0-0-0--0-0-0--0-0-|--0--0-0-0--0-0-----------| ------------------------------|--------------------------| ------------------------------|--------------------------| ------------------------------|--------------------------| ------------------------------|----------------5----2----| --2--2-2-2--2-2-2--2-2-2--2-2-|--2--2-2-2--2-2-3----0----| --0--0-0-0--0-0-0--0-0-0--0-0-|--0--0-0-0--0-0-----------| ------------------------------|--------------------------| ------------------------------|--------------------------| ------------------------------|--------------------------| ------------------------------|----------------5----2----| --2--2-2-2--2-2-2--2-2-2--2-2-|--2--2-2-2--2-2-3----0----| --0--0-0-0--0-0-0--0-0-0--0-0-|--0--0-0-0--0-0-----------| ------------------------------|--------------------------|-------------------| ------------------------------|--------------------------|-------------------| ------------------------------|--------------------------|-------------------| ------------------------------|----------------5----2----|-------------------| --2--2-2-2--2-2-2--2-2-2--2-2-|--2--2-2-2--2-2-3----0----|--3----------------| --0--0-0-0--0-0-0--0-0-0--0-0-|--0--0-0-0--0-0-----------|--1----------------| ------------------|-------------------|------------------|-------------------| ------------------|-------------------|------------------|-------------------| ------------------|-------------------|------------------|-------------------| ------------------|-------------------|------------------|-------------------| ------------------|--2----------------|------------------|--3----------------| ------------------|--0----------------|------------------|--1----------------| ------------------|-------------------|------------------| ------------------|-------------------|------------------| ------------------|-------------------|------------------| ------------------|-------------------|------------------| ------------------|--2----------------|------------------| ------------------|--0----------------|------------------| ------------------------------|--------------------------| ------------------------------|--------------------------| ------------------------------|--------------------------| ------------------------------|----------------5----2----| --2--2-2-2--2-2-2--2-2-2--2-2-|--2--2-2-2--2-2-3----0----| --0--0-0-0--0-0-0--0-0-0--0-0-|--0--0-0-0--0-0-----------| ------------------------------|--------------------------| ------------------------------|--------------------------| ------------------------------|--------------------------| ------------------------------|----------------5----2----| --2--2-2-2--2-2-2--2-2-2--2-2-|--2--2-2-2--2-2-3----0----| --0--0-0-0--0-0-0--0-0-0--0-0-|--0--0-0-0--0-0-----------| ------------------------------|--------------------------| ------------------------------|--------------------------| ------------------------------|--------------------------| ------------------------------|----------------5----2----| --2--2-2-2--2-2-2--2-2-2--2-2-|--2--2-2-2--2-2-3----0----| --0--0-0-0--0-0-0--0-0-0--0-0-|--0--0-0-0--0-0-----------| ------------------------------|--------------------------| ------------------------------|--------------------------| ------------------------------|--------------------------| ------------------------------|----------------5----2----| --2--2-2-2--2-2-2--2-2-2--2-2-|--2--2-2-2--2-2-3----0----| --0--0-0-0--0-0-0--0-0-0--0-0-|--0--0-0-0--0-0-----------| ------------------------------|-------------------------| ------------------------------|-------------------------| ------------------------------|-------------------------| ------------------------------|----------------3--------| --5--5-5-5--5-5-5--5-5-5--5-5-|--5--5-5-5--5-5-3--------| --3--3-3-3--3-3-3--3-3-3--3-3-|--3--3-3-3--3-3-1--------| ------------------------------|-------------------------| ------------------------------|-------------------------| ------------------------------|-------------------------| ------------------------------|----------------3--------| --5--5-5-5--5-5-5--5-5-5--5-5-|--5--5-5-5--5-5-3--------| --3--3-3-3--3-3-3--3-3-3--3-3-|--3--3-3-3--3-3-1--------| ------------------------------|-------------------------| ------------------------------|-------------------------| ------------------------------|-------------------------| ------------------------------|----------------3--------| --5--5-5-5--5-5-5--5-5-5--5-5-|--5--5-5-5--5-5-3--------| --3--3-3-3--3-3-3--3-3-3--3-3-|--3--3-3-3--3-3-1--------| ------------------------------|-------------------------| ------------------------------|-------------------------| ------------------------------|-------------------------| ------------------------------|----------------3--------| --5--5-5-5--5-5-5--5-5-5--5-5-|--5--5-5-5--5-5-3--------| --3--3-3-3--3-3-3--3-3-3--3-3-|--3--3-3-3--3-3-1--------| ------------------------------|-------------------------| ------------------------------|-------------------------| ------------------------------|-------------------------| ------------------------------|----------------3--------| --5--5-5-5--5-5-5--5-5-5--5-5-|--5--5-5-5--5-5-3--------| --3--3-3-3--3-3-3--3-3-3--3-3-|--3--3-3-3--3-3-1--------| ------------------------------|-------------------------| ------------------------------|-------------------------| ------------------------------|-------------------------| ------------------------------|----------------3--------| --5--5-5-5--5-5-5--5-5-5--5-5-|--5--5-5-5--5-5-3--------| --3--3-3-3--3-3-3--3-3-3--3-3-|--3--3-3-3--3-3-1--------| ------------------------------|-------------------------| ------------------------------|-------------------------| ------------------------------|-------------------------| ------------------------------|----------------3--------| --5--5-5-5--5-5-5--5-5-5--5-5-|--5--5-5-5--5-5-3--------| --3--3-3-3--3-3-3--3-3-3--3-3-|--3--3-3-3--3-3-1--------| ------------------------------|--------------------|-------------------| ------------------------------|--------------------|-------------------| ------------------------------|--------------------|-------------------| ------------------------------|--3--------5--------|-------------------| --5--5-5-5--5-5-5--5-5-5--5-5-|--1--------3--------|--5----------------| --3--3-3-3--3-3-3--3-3-3--3-3-|--------------------|--3----------------| ------------------|------------------|| ------------------|------------------|| ------------------|------------------|| ------------------|------------------|| ------------------|------------------|| ------------------|------------------||

    поиск лекарств
    список лекарств






    О сайтеАккордыХит-парадПоискУроки ФорумыИщу песню
    ПрограммыСвежачок-сПодпискаСтатьи
    Яндекс.Метрика