Табулатура Nightwish | Bare Grace Misery  (4) гитара табулатуры уроки тексты песен Nightwish текст lyrics песня аккорды песни ноты нота электрогитара струна  
   А Б В Г Д Е Ж З И К Л М Н О П Р С Т У Ф Х Ч Ш Ы Э Ю Я       Разные песни
1-9 A B C D E F G H I J K L M N O P Q R S T U V W Y Z      Все исполнители in english

    



группа Nightwish, Табулатура песни Bare Grace Misery (4)

Работа в Европе для граждан РФ, Украины, СНГ

  • минимальная зарплата $500.
  • виза и контракт на полгода, возможно продление
  • проживание оплачивает работодатель
  • нужен только загранпаспорт
  • оформление 190 €
  • данное предложение - отличная возможность эмигрировать в Европу и закрепиться здесь навсегда.

  • Мы свяжемся с Вами по WhatsApp или Viber и ответим на любые вопросы.
    на нашем сайте можно почитать подробнее »

    Группа: Nightwish - другие аккорды (414),   о группе (12 статей),   диски (6),   фотографии (25)
    Табулатура песни: Bare Grace Misery (4)
    Просмотров: 763
    Прислал: Forever (forever@akkords.ru)




        
                                  Bare Grace Misery                                 
    
                                                         T. Holopainen / E. Vuorinen
    Keyboard 2.
    Tab by T.P
    
                                                                     
    E||------------------|--0----------------|----------------------|
    B||------------------|-------------------|--1-------------------|
    G||------------------|--2----------------|--------2---------2---|
    D||------------------|-------------------|-------------3--------|
    A||------------------|--0----------------|----------------------|
    E||------------------|-------------------|----------------------|
    
                                                                      
    --0----------------|----------------------|----------------------|
    -------------------|--0-------------------|--1-------------------|
    --2----------------|--------0-------------|--------2-------------|
    -------------------|-------------2--------|-------------3--------|
    --0----------------|------------------2---|------------------3---|
    -------------------|----------------------|----------------------|
    
                                                                      
    ----------------------|----------------------|-------------------|
    --1-------------------|--1-------------------|-------------------|
    --------2-------------|--------2---------2---|--4----------------|
    -------------2--------|-------------3--------|--5----------------|
    ------------------0---|----------------------|-------------------|
    ----------------------|----------------------|--3----------------|
    
                                                                                
    ------------------|------------------|------------------|------------------|
    ------------------|------------------|------------------|------------------|
    ------------------|------------------|------------------|------------------|
    ------------------|------------------|------------------|------------------|
    ------------------|------------------|------------------|------------------|
    ------------------|------------------|------------------|------------------|
    
                                                                                
    ------------------|------------------|------------------|------------------|
    ------------------|------------------|------------------|------------------|
    ------------------|------------------|------------------|------------------|
    ------------------|------------------|------------------|------------------|
    ------------------|------------------|------------------|------------------|
    ------------------|------------------|------------------|------------------|
    
                                                                 
    --0----------------|--3-----------------|--0----------------|
    -------------------|-----------3--------|-------------------|
    --2----------------|--5-----------------|--2----------------|
    -------------------|--------------------|-------------------|
    --0----------------|--3--------5--------|--0----------------|
    -------------------|-----------3--------|-------------------|
    
                                                                    
    -----------5--------|--0----------------|----------------------|
    --0-----------------|-------------------|--1-------------------|
    -----------7--------|--2----------------|--------2---------2---|
    --2-----------------|-------------------|-------------3--------|
    -----------5--------|--0----------------|----------------------|
    --0-----------------|-------------------|----------------------|
    
                                                                      
    --0----------------|----------------------|----------------------|
    -------------------|--0-------------------|--1-------------------|
    --2----------------|--------0-------------|--------2-------------|
    -------------------|-------------2--------|-------------3--------|
    --0----------------|------------------2---|------------------3---|
    -------------------|----------------------|----------------------|
    
                                                                      
    ----------------------|----------------------|-------------------|
    --1-------------------|--1-------------------|-------------------|
    --------2-------------|--------2---------2---|--4----------------|
    -------------2--------|-------------3--------|--5----------------|
    ------------------0---|----------------------|-------------------|
    ----------------------|----------------------|--3----------------|
    
                                                                         
    ----------------------|----------------------|----------------------|
    --1----3----1----0----|--1----3----1----0----|--1----3----1----0----|
    ----------------------|----------------------|----------------------|
    ----------------------|----------------------|----------------------|
    ----------------------|----------------------|----------------------|
    ----------------------|----------------------|----------------------|
    
                                                                         
    ----------------------|----------------------|----------------------|
    --1----3----1----0----|--1----3----1----0----|--1----3----1----0----|
    ----------------------|----------------------|----------------------|
    
    Узнай ВСЕ о своем друге в ВК или FB
    ----------------------|----------------------|----------------------| ----------------------|----------------------|----------------------| ----------------------|----------------------|----------------------| ----------------------|----------------------|----------------------| --1----3----1----0----|--1----3----1----0----|--1----3----1----0----| ----------------------|----------------------|----------------------| ----------------------|----------------------|----------------------| ----------------------|----------------------|----------------------| ----------------------|----------------------|----------------------| ----------------------|------------------|------------------|------------------| --1----3----1----0----|------------------|------------------|------------------| ----------------------|------------------|------------------|------------------| ----------------------|------------------|------------------|------------------| ----------------------|------------------|------------------|------------------| ----------------------|------------------|------------------|------------------| ------------------|------------------|------------------|------------------| ------------------|------------------|------------------|------------------| ------------------|------------------|------------------|------------------| ------------------|------------------|------------------|------------------| ------------------|------------------|------------------|------------------| ------------------|------------------|------------------|------------------| ------------------|------------------|------------------|------------------| ------------------|------------------|------------------|------------------| ------------------|------------------|------------------|------------------| ------------------|------------------|------------------|------------------| ------------------|------------------|------------------|------------------| ------------------|------------------|------------------|------------------| ------------------|------------------|------------------|------------------| ------------------|------------------|------------------|------------------| ------------------|------------------|------------------|------------------| ------------------|------------------|------------------|------------------| ------------------|------------------|------------------|------------------| ------------------|------------------|------------------|------------------| ------------------|------------------|------------------|------------------| ------------------|------------------|------------------|------------------| ------------------|------------------|------------------|------------------| ------------------|------------------|------------------|------------------| ------------------|------------------|------------------|------------------| ------------------|------------------|------------------|------------------| ------------------|--0----------------|----------------------| ------------------|-------------------|--1-------------------| ------------------|--2----------------|--------2---------2---| ------------------|-------------------|-------------3--------| ------------------|--0----------------|----------------------| ------------------|-------------------|----------------------| --0----------------|----------------------|----------------------| -------------------|--0-------------------|--1-------------------| --2----------------|--------0-------------|--------2-------------| -------------------|-------------2--------|-------------3--------| --0----------------|------------------2---|------------------3---| -------------------|----------------------|----------------------| ----------------------|----------------------|-------------------| --1-------------------|--1-------------------|-------------------| --------2-------------|--------2---------2---|--4----------------| -------------2--------|-------------3--------|--5----------------| ------------------0---|----------------------|-------------------| ----------------------|----------------------|--3----------------| -------------------|------------------|------------------|| -------------------|------------------|------------------|| -------------------|------------------|------------------|| -------------------|------------------|------------------|| --0----------------|------------------|------------------|| -------------------|------------------|------------------||

    поиск лекарств
    список лекарств






    О сайтеАккордыХит-парадПоискУроки ФорумыИщу песню
    ПрограммыСвежачок-сПодпискаСтатьи
    Яндекс.Метрика