Табулатура Nightwish | Bare Grace Misery гитара табулатуры уроки тексты песен Nightwish текст lyrics песня аккорды песни ноты нота электрогитара струна  
   А Б В Г Д Е Ж З И К Л М Н О П Р С Т У Ф Х Ч Ш Ы Э Ю Я       Разные песни
1-9 A B C D E F G H I J K L M N O P Q R S T U V W Y Z      Все исполнители in english

    



группа Nightwish, Табулатура песни Bare Grace Misery

Работа в Европе для граждан РФ, Украины, СНГ

  • минимальная зарплата $500.
  • виза и контракт на полгода, возможно продление
  • проживание оплачивает работодатель
  • нужен только загранпаспорт
  • оформление 190 €
  • данное предложение - отличная возможность эмигрировать в Европу и закрепиться здесь навсегда.

  • Мы свяжемся с Вами по WhatsApp или Viber и ответим на любые вопросы.
    на нашем сайте можно почитать подробнее »

    Группа: Nightwish - другие аккорды (414),   о группе (12 статей),   диски (6),   фотографии (25)
    Табулатура песни: Bare Grace Misery
    Просмотров: 1125
    Подобрал: Forever (forever@akkords.ru)




        
                                  Bare Grace Misery                                 
    
                                                         T. Holopainen / E. Vuorinen
    Keyboard 3.
    Tab by T.P
    
                                                                                   
    E||------------------|------------------|------------------|------------------|
    B||------------------|------------------|------------------|------------------|
    G||------------------|------------------|------------------|------------------|
    D||------------------|------------------|------------------|------------------|
    A||------------------|------------------|------------------|------------------|
    E||------------------|------------------|------------------|------------------|
    
                                                                                
    ------------------|------------------|------------------|------------------|
    ------------------|------------------|------------------|------------------|
    ------------------|------------------|------------------|------------------|
    ------------------|------------------|------------------|------------------|
    ------------------|------------------|------------------|------------------|
    ------------------|------------------|------------------|------------------|
    
                                                                          
    ------------------|--------12-17-------12-17-------12-17-12----12-17-|
    ------------------|-----13----------13----------13----------13-------|
    ------------------|--14----------14----------14----------------------|
    ------------------|--------------------------------------------------|
    ------------------|--------------------------------------------------|
    ------------------|--------------------------------------------------|
    
                                                       
    --15----15-20-15----15-20-15----15-20-15----15-20-|
    -----17----------17----------15----------15-------|
    --------------------------------------------------|
    --------------------------------------------------|
    --------------------------------------------------|
    --------------------------------------------------|
    
                                                       
    --------12-17-------12-17-------12-17-12----12-17-|
    -----13----------13----------13----------13-------|
    --14----------14----------14----------------------|
    --------------------------------------------------|
    --------------------------------------------------|
    --------------------------------------------------|
    
                                                       
    --12----12-17-12----12-17-17----17-22-17----17-22-|
    -----12----------12----------19----------19-------|
    --------------------------------------------------|
    --------------------------------------------------|
    --------------------------------------------------|
    --------------------------------------------------|
    
                                                       
    --------12-17-------12-17-------12-17-12----12-17-|
    -----13----------13----------13----------13-------|
    --14----------14----------14----------------------|
    --------------------------------------------------|
    --------------------------------------------------|
    --------------------------------------------------|
    
                                                       
    --15----15-20-15----15-20-15----15-20-15----15-20-|
    -----17----------17----------15----------15-------|
    --------------------------------------------------|
    --------------------------------------------------|
    --------------------------------------------------|
    --------------------------------------------------|
    
                                                       
    --------12-17-------12-17-------12-17-12----12-17-|
    -----13----------13----------13----------13-------|
    --14----------14----------14----------------------|
    --------------------------------------------------|
    --------------------------------------------------|
    --------------------------------------------------|
    
                                                                          
    --12----12-17-12----12-17-17----17-22-17----17-22-|------------------|
    -----12----------12----------19----------19-------|------------------|
    --------------------------------------------------|------------------|
    --------------------------------------------------|------------------|
    --------------------------------------------------|------------------|
    --------------------------------------------------|------------------|
    
                                                                                
    ------------------|------------------|------------------|------------------|
    ------------------|------------------|------------------|------------------|
    ------------------|------------------|------------------|------------------|
    ------------------|------------------|------------------|------------------|
    ------------------|------------------|------------------|------------------|
    ------------------|------------------|------------------|------------------|
    
                                                                                
    ------------------|------------------|------------------|------------------|
    ------------------|------------------|------------------|------------------|
    ------------------|------------------|------------------|------------------|
    ------------------|------------------|------------------|------------------|
    ------------------|------------------|------------------|------------------|
    ------------------|------------------|------------------|------------------|
    
                                                                                
    ------------------|------------------|------------------|------------------|
    ------------------|------------------|------------------|------------------|
    ------------------|------------------|------------------|------------------|
    ------------------|------------------|------------------|------------------|
    ------------------|------------------|------------------|------------------|
    ------------------|------------------|------------------|------------------|
    
                                                                                
    ------------------|------------------|------------------|------------------|
    ------------------|------------------|------------------|------------------|
    ------------------|------------------|------------------|------------------|
    ------------------|------------------|------------------|------------------|
    ------------------|------------------|------------------|------------------|
    ------------------|------------------|------------------|------------------|
    
                                                                                
    ------------------|------------------|------------------|------------------|
    ------------------|------------------|------------------|------------------|
    ------------------|------------------|------------------|------------------|
    ------------------|------------------|------------------|------------------|
    ------------------|------------------|------------------|------------------|
    ------------------|------------------|------------------|------------------|
    
                                                                                
    ------------------|------------------|------------------|------------------|
    ------------------|------------------|------------------|------------------|
    ------------------|------------------|------------------|------------------|
    
    Узнай ВСЕ о своем друге в ВК или FB
    ------------------|------------------|------------------|------------------| ------------------|------------------|------------------|------------------| ------------------|------------------|------------------|------------------| ------------------|--8-0-8-0-7-0-7-0-5-0-5-0-8-7-5---| ------------------|--------------------------------5-| ------------------|----------------------------------| ------------------|----------------------------------| ------------------|----------------------------------| ------------------|----------------------------------| --8-0-8-0-7-0-7-0-5-0-5-0-3-5-7-3-|--8-0-8-0-7-0-7-0-5-0-5-0-8-7-5---| ----------------------------------|--------------------------------5-| ----------------------------------|----------------------------------| ----------------------------------|----------------------------------| ----------------------------------|----------------------------------| ----------------------------------|----------------------------------| --8-0-8-0-7-0-7-0-3-1-3-5-7-5-7-8-|------------------|------------------| ----------------------------------|------------------|------------------| ----------------------------------|------------------|------------------| ----------------------------------|------------------|------------------| ----------------------------------|------------------|------------------| ----------------------------------|------------------|------------------| ------------------|------------------| ------------------|------------------| ------------------|------------------| ------------------|------------------| ------------------|------------------| ------------------|------------------| --------12-17-------12-17-------12-17-12----12-17-| -----13----------13----------13----------13-------| --14----------14----------14----------------------| --------------------------------------------------| --------------------------------------------------| --------------------------------------------------| --15----15-20-15----15-20-15----15-20-15----15-20-| -----17----------17----------15----------15-------| --------------------------------------------------| --------------------------------------------------| --------------------------------------------------| --------------------------------------------------| --------12-17-------12-17-------12-17-12----12-17-| -----13----------13----------13----------13-------| --14----------14----------14----------------------| --------------------------------------------------| --------------------------------------------------| --------------------------------------------------| --12----12-17-12----12-17-17----17-22-17----17-22-| -----12----------12----------19----------19-------| --------------------------------------------------| --------------------------------------------------| --------------------------------------------------| --------------------------------------------------| --------12-17-------12-17-------12-17-12----12-17-| -----13----------13----------13----------13-------| --14----------14----------14----------------------| --------------------------------------------------| --------------------------------------------------| --------------------------------------------------| --15----15-20-15----15-20-15----15-20-15----15-20-| -----17----------17----------15----------15-------| --------------------------------------------------| --------------------------------------------------| --------------------------------------------------| --------------------------------------------------| --------12-17-------12-17-------12-17-12----12-17-| -----13----------13----------13----------13-------| --14----------14----------14----------------------| --------------------------------------------------| --------------------------------------------------| --------------------------------------------------| --12----12-17-12----12-17-17----17-22-17----17-22-|------------------| -----12----------12----------19----------19-------|------------------| --------------------------------------------------|------------------| --------------------------------------------------|------------------| --------------------------------------------------|------------------| --------------------------------------------------|------------------| ------------------|------------------|------------------|------------------| ------------------|------------------|------------------|------------------| ------------------|------------------|------------------|------------------| ------------------|------------------|------------------|------------------| ------------------|------------------|------------------|------------------| ------------------|------------------|------------------|------------------| ------------------|------------------|------------------|------------------| ------------------|------------------|------------------|------------------| ------------------|------------------|------------------|------------------| ------------------|------------------|------------------|------------------| ------------------|------------------|------------------|------------------| ------------------|------------------|------------------|------------------| ------------------|------------------|| ------------------|------------------|| ------------------|------------------|| ------------------|------------------|| ------------------|------------------|| ------------------|------------------||

    лекарство в аптеке
    список лекарств






    О сайтеАккордыХит-парадПоискУроки ФорумыИщу песню
    ПрограммыСвежачок-сПодпискаСтатьи
    Яндекс.Метрика