Табулатура Nightwish | Fantasmic  (3) гитара табулатуры уроки тексты песен Nightwish текст lyrics песня аккорды песни ноты нота электрогитара струна  
   А Б В Г Д Е Ж З И К Л М Н О П Р С Т У Ф Х Ч Ш Ы Э Ю Я       Разные песни
1-9 A B C D E F G H I J K L M N O P Q R S T U V W Y Z      Все исполнители in english

    



группа Nightwish, Табулатура песни Fantasmic (3)

Работа в Европе для граждан РФ, Украины, СНГ

  • минимальная зарплата $500.
  • виза и контракт на полгода, возможно продление
  • проживание оплачивает работодатель
  • нужен только загранпаспорт
  • оформление 190 €
  • данное предложение - отличная возможность эмигрировать в Европу и закрепиться здесь навсегда.

  • Мы свяжемся с Вами по WhatsApp или Viber и ответим на любые вопросы.
    на нашем сайте можно почитать подробнее »

    Группа: Nightwish - другие аккорды (414),   о группе (12 статей),   диски (6),   фотографии (25)
    Табулатура песни: Fantasmic (3)
    Просмотров: 1015
    Прислал: Forever (forever@akkords.ru)




        
                                      FantasMic                                     
    
    Emppu
                                                                            
    E||------|------|------|------|--------------------|-------------------|
    B||------|------|------|------|--------------------|-------------------|
    G||------|------|------|------|--------------------|-------------------|
    D||------|------|------|------|--------------------|-------------------|
    A||------|------|------|------|--2--------------2--|--2----------------|
    E||------|------|------|------|--0--------------0--|--0----------------|
    
                                                     
    --------------------|---------------------------|
    --------------------|---------------------------|
    --------------------|---------------------------|
    --------------------|---------------------------|
    --2--------------2--|--2------------------------|
    --0--------------0--|--0------------------------|
    
                                                                              
    ------------------------------------|------------------------------------|
    ------------------------------------|------------------------------------|
    -------------7---9/-----------------|------------------------------------|
    --9---9-10-----------9---9-10---7---|--9---9-7---------------------------|
    ----7------7---7---7---7------7---7-|----7-----7-10-7-9-7-9-10-7-9-7-6-7-|
    ------------------------------------|------------------------------------|
    
                                                                              
    ------------------------------------|------------------------------------|
    ------------------------------------|------------------------------------|
    -------------7---9/-----------------|------------------------------------|
    --9---9-10-----------9---9-10---7---|--9---9-7---------------------------|
    ----7------7---7---7---7------7---7-|----7-----7-10-7-9-7-9-10-7-9-7-6-7-|
    ------------------------------------|------------------------------------|
    
                                                                              
    ------------------------------------|------------------------------------|
    ------------------------------------|------------------------------------|
    -------------7---9/-----------------|------------------------------------|
    --9---9-10-----------9---9-10---7---|--9---9-7---------------------------|
    ----7------7---7---7---7------7---7-|----7-----7-10-7-9-7-9-10-7-9-7-6-7-|
    ------------------------------------|------------------------------------|
    
                                                                  
    ------------------------------------|------------10----------|
    ------------------------------------|--10---13---------------|
    -------------7---9/-----------------|------------------------|
    --9---9-10-----------9---9-10---7---|------------------------|
    ----7------7---7---7---7------7---7-|------------------------|
    ------------------------------------|------------------------|
    
                                                                  
    -------15---14----------|------------------------------------|
    --13--------------------|------------------------------------|
    ------------------------|-------------7---9/-----------------|
    ------------------------|--9---9-10-----------9---9-10---7---|
    ------------------------|----7------7---7---7---7------7---7-|
    ------------------------|------------------------------------|
    
                                                                              
    ------------------------------------|------------------------------------|
    ------------------------------------|------------------------------------|
    ------------------------------------|-------------7---9/-----------------|
    --9---9-7---------------------------|--9---9-10-----------9---9-10---7---|
    ----7-----7-10-7-9-7-9-10-7-9-7-6-7-|----7------7---7---7---7------7---7-|
    ------------------------------------|------------------------------------|
    
                                                                
    ----------------------|------------------------------------|
    ----------------------|------------------------------------|
    ----------------------|-------------7---9/-----------------|
    ------5---7-----------|--9---9-10-----------9---9-10---7---|
    --5-----------8-------|----7------7---7---7---7------7---7-|
    ----------------------|------------------------------------|
    
                                                                              
    ------------------------------------|------------------------------------|
    ------------------------------------|------------------------------------|
    ------------------------------------|-------------7---9/-----------------|
    --9---9-7---------------------------|--9---9-10-----------9---9-10---7---|
    ----7-----7-10-7-9-7-9-10-7-9-7-6-7-|----7------7---7---7---7------7---7-|
    ------------------------------------|------------------------------------|
    
                                                      
    ------------10----------|-------15---14----------|
    --10---13---------------|--13--------------------|
    ------------------------|------------------------|
    ------------------------|------------------------|
    ------------------------|------------------------|
    ------------------------|------------------------|
    
                                                              
    ------------------------------|--------------------------|
    ------------------------------|--------------------------|
    ------------------------------|--------------------------|
    ------------------------------|----------------5----7----|
    --2------2------2------2------|--2------2------3----5----|
    --0--0-0-0--0-0-0--0-0-0--0-0-|--0--0-0-0--0-0-----------|
    
                                                                   
    ------------------------------|-------------------------------|
    ------------------------------|-------------------------------|
    ------------------------------|-------------------------------|
    ------------------------------|-------------------1-2-4-2-1-4-|
    --2------2------2------2------|--2------2------2--------------|
    --0--0-0-0--0-0-0--0-0-0--0-0-|--0--0-0-0--0-0-0--------------|
    
                                                                
    ----------------------------|------------------------------|
    ----------------------------|------------------------------|
    ----------------------------|------------------------------|
    --2-------------------------|--------------------5------7--|
    -------2------2------2------|--2------2------3-3-3--5-5-5--|
    -------0--0-0-0--0-0-0--0-0-|--0--0-0-0--0-0---------------|
    
                                                                
    ------------------------------|----------------------------|
    ------------------------------|----------------------------|
    ------------------------------|----------------------------|
    ------------------------------|----------------5--7--6--3--|
    --2------2------2------2------|--2------2------5--7--6--3--|
    --0--0-0-0--0-0-0--0-0-0--0-0-|--0--0-0-0--0-0-3--5--4--1--|
    
                                                              
    ------------------------------|--------------------------|
    ------------------------------|--------------------------|
    ------------------------------|--------------------------|
    ------------------------------|----------------5----7----|
    --2------2------2------2------|--2------2------3----5----|
    --0--0-0-0--0-0-0--0-0-0--0-0-|--0--0-0-0--0-0-----------|
    
                                                                   
    ------------------------------|-------------------------------|
    ------------------------------|-------------------------------|
    ------------------------------|-------------------------------|
    ------------------------------|-------------------1-2-4-2-1-4-|
    --2------2------2------2------|--2------2------2--------------|
    --0--0-0-0--0-0-0--0-0-0--0-0-|--0--0-0-0--0-0-0--------------|
    
                                                                
    ----------------------------|------------------------------|
    ----------------------------|------------------------------|
    ----------------------------|------------------------------|
    --2-------------------------|--------------------5------7--|
    -------2------2------2------|--2------2------3-3-3--5-5-5--|
    -------0--0-0-0--0-0-0--0-0-|--0--0-0-0--0-0---------------|
    
                                                                
    ------------------------------|----------------------------|
    ------------------------------|----------------------------|
    ------------------------------|----------------------------|
    ------------------------------|----------------5--7--6--3--|
    --2------2------2------2------|--2------2------5--7--6--3--|
    --0--0-0-0--0-0-0--0-0-0--0-0-|--0--0-0-0--0-0-3--5--4--1--|
    
                                                                       
    -------------------------------|----------------------------------|
    -------------------------------|----------------------------------|
    ------------4---6/---0---------|----------------------------------|
    --6---6-7--------------7---4---|--6---6-4-------------------------|
    ----4-----4---4----------4---4-|----4-----4-7-4-6-4-6-7-4-6-4-3-4-|
    -------------------------------|----------------------------------|
    
                                                                       
    -------------------------------|----------------------------------|
    -------------------------------|----------------------------------|
    ------------4---6/---0---------|----------------------------------|
    --6---6-7--------------7---4---|--6---6-4-------------------------|
    ----4-----4---4----------4---4-|----4-----4-7-4-6-4-6-7-4-6-4-3-4-|
    -------------------------------|----------------------------------|
    
                                                                       
    -------------------------------|----------------------------------|
    -------------------------------|----------------------------------|
    ------------4---6/---0---------|----------------------------------|
    --6---6-7--------------7---4---|--6---6-4-------------------------|
    ----4-----4---4----------4---4-|----4-----4-7-4-6-4-6-7-4-6-4-3-4-|
    -------------------------------|----------------------------------|
    
                                                             
    -------------------------------|------------------------|
    -------------------------------|-------10---12----------|
    ------------4---6/---0---------|--11--------------------|
    --6---6-7--------------7---4---|------------------------|
    ----4-----4---4----------4---4-|------------------------|
    -------------------------------|------------------------|
    
                                                            
    -------12---11----------|------------------------------|
    --10--------------------|------------------------------|
    ------------------------|------------------------------|
    ------------------------|------------------------------|
    ------------------------|--2------2------2------2------|
    ------------------------|--0--0-0-0--0-0-0--0-0-0--0-0-|
    
                                                              
    --------------------------|------------------------------|
    --------------------------|------------------------------|
    --------------------------|------------------------------|
    ----------------5----7----|------------------------------|
    --2------2------3----5----|--2------2------2------2------|
    --0--0-0-0--0-0-----------|--0--0-0-0--0-0-0--0-0-0--0-0-|
    
                                                                 
    -------------------------------|----------------------------|
    -------------------------------|----------------------------|
    -------------------------------|----------------------------|
    -------------------1-2-4-2-1-4-|--2-------------------------|
    --2------2------2--------------|-------2------2------2------|
    --0--0-0-0--0-0-0--------------|-------0--0-0-0--0-0-0--0-0-|
    
                                                                  
    ------------------------------|------------------------------|
    ------------------------------|------------------------------|
    ------------------------------|------------------------------|
    --------------------5------7--|------------------------------|
    --2------2------3-3-3--5-5-5--|--2------2------2------2------|
    --0--0-0-0--0-0---------------|--0--0-0-0--0-0-0--0-0-0--0-0-|
    
                                                                         
    ----------------------------|----|----|----|----|----|----|----|----|
    ----------------------------|----|----|----|----|----|----|----|----|
    ----------------------------|----|----|----|----|----|----|----|----|
    ----------------5--7--6--3--|----|----|----|----|----|----|----|----|
    --2------2------5--7--6--3--|----|----|----|----|----|----|----|----|
    --0--0-0-0--0-0-3--5--4--1--|----|----|----|----|----|----|----|----|
    
                                                                                 
    -------------------------|------------------------|-------------------------|
    -------------------------|------------------------|-------------------------|
    -------------------------|------------------------|-------------------------|
    -------------------------|------------------------|-------------------------|
    --7--7--7--7--7----7--7--|--7--7--7----7--7--7----|--7--7--7--7--7----7--7--|
    --5--5--5--5--5----5--5--|--5--5--5----5--5--5----|--5--5--5--5--5----5--5--|
    
                                                                                 
    -------------------|------------------------------|-------------------------|
    -------------------|------------------------------|-------------------------|
    -------------------|------------------------------|-------------------------|
    --7----------------|------------------------------|----------------2--------|
    --7----------------|----------4--4----------4--4--|----------4--4--2--------|
    --5----------------|--2-2-2-2-2--2--2-2-2-2-2--2--|--2-2-2-2-2--2--0--------|
    
                                                             
    ------------------------------|-------------------------|
    ------------------------------|-------------------------|
    ------------------------------|-------------------------|
    ------------------------------|----------------2--------|
    ----------4--4----------4--4--|----------4--4--2--------|
    --2-2-2-2-2--2--2-2-2-2-2--2--|--2-2-2-2-2--2--0--------|
    
                                                             
    ------------------------------|-------------------------|
    ------------------------------|-------------------------|
    ------------------------------|-------------------------|
    --8------8------8------8------|--8------8------6--------|
    --6--6-6-6--6-6-6--6-6-6--6-6-|--6--6-6-6--6-6-4--------|
    ------------------------------|-------------------------|
    
                                                             
    ------------------------------|-------------------------|
    ------------------------------|-------------------------|
    ------------------------------|-------------------------|
    --8------8------8------8------|--8------8------6--------|
    --6--6-6-6--6-6-6--6-6-6--6-6-|--6--6-6-6--6-6-4--------|
    ------------------------------|-------------------------|
    
                                                             
    ------------------------------|-------------------------|
    ------------------------------|-------------------------|
    ------------------------------|-------------------------|
    ------------------------------|----------------2--------|
    ----------4--4----------4--4--|----------4--4--2--------|
    --2-2-2-2-2--2--2-2-2-2-2--2--|--2-2-2-2-2--2--0--------|
    
                                                             
    ------------------------------|-------------------------|
    ------------------------------|-------------------------|
    ------------------------------|-------------------------|
    ------------------------------|----------------2--------|
    ----------4--4----------4--4--|----------4--4--2--------|
    --2-2-2-2-2--2--2-2-2-2-2--2--|--2-2-2-2-2--2--0--------|
    
                                                             
    ------------------------------|-------------------------|
    ------------------------------|-------------------------|
    ------------------------------|-------------------------|
    --8------8------8------8------|--8------8------6--------|
    --6--6-6-6--6-6-6--6-6-6--6-6-|--6--6-6-6--6-6-4--------|
    ------------------------------|-------------------------|
    
                                                             
    ------------------------------|-------------------------|
    ------------------------------|-------------------------|
    ------------------------------|-------------------------|
    --8------8------8------8------|--8------8------6--------|
    --6--6-6-6--6-6-6--6-6-6--6-6-|--6--6-6-6--6-6-4--------|
    ------------------------------|-------------------------|
    
                                                                   
    ------------------------------|-------------------------------|
    ------------------------------|-------3---5---6---5---3---5---|
    ------------------------------|--0------0---0---0---0---0---0-|
    ----------2--3----------5--3--|-------------------------------|
    --0-0-0-0-------0-0-0-0-------|-------------------------------|
    ------------------------------|-------------------------------|
    
                                                                                
    ------------------------------|------------------------|-------------------|
    ------------------------------|----------5-------------|-------------------|
    ------------------------------|--5----7-----7--4-------|-------------------|
    ----------2--3----------5--3--|-------------------5----|--3----------------|
    --0-0-0-0-------0-0-0-0-------|------------------------|--3----------------|
    ------------------------------|------------------------|--1----------------|
    
                                                               
    -------------------|-------------------|------------------|
    -------------------|-------------------|------------------|
    --7----------------|-------------------|------------------|
    --7----------------|--7----------------|------------------|
    --5----------------|--7----------------|------------------|
    -------------------|--5----------------|------------------|
    
                                                                   
    ------------------------------|-------------------------------|
    ------------------------------|-------3---5---6---5---3---5---|
    ------------------------------|--0------0---0---0---0---0---0-|
    ----------2--3----------5--3--|-------------------------------|
    --0-0-0-0-------0-0-0-0-------|-------------------------------|
    ------------------------------|-------------------------------|
    
                                                                                
    ------------------------------|------------------------|-------------------|
    ------------------------------|----------5-------------|-------------------|
    ------------------------------|--5----7-----7--4-------|-------------------|
    ----------2--3----------5--3--|-------------------5----|--3----------------|
    --0-0-0-0-------0-0-0-0-------|------------------------|--3----------------|
    ------------------------------|------------------------|--1----------------|
    
                                                                                   
    -------------------|-------------------|------------------|-------------------|
    -------------------|-------------------|------------------|-------------------|
    --7----------------|-------------------|------------------|-------------------|
    --7----------------|--7----------------|------------------|--7----------------|
    --5----------------|--7----------------|------------------|--7----------------|
    -------------------|--5----------------|------------------|--5----------------|
    
    
    Узнай ВСЕ о своем друге в ВК или FB
    ------------------|------------------|------------------|------------------| ------------------|------------------|------------------|------------------| ------------------|------------------|------------------|------------------| ------------------|------------------|------------------|------------------| ------------------|------------------|------------------|------------------| ------------------|------------------|------------------|------------------| ------------------|------------------|------------------|------------------| ------------------|------------------|------------------|------------------| ------------------|------------------|------------------|------------------| ------------------|------------------|------------------|------------------| ------------------|------------------|------------------|------------------| ------------------|------------------|------------------|------------------| ------------------|------------------|------------------|------------------| ------------------|------------------|------------------|------------------| ------------------|------------------|------------------|------------------| ------------------|------------------|------------------|------------------| ------------------|------------------|------------------|------------------| ------------------|------------------|------------------|------------------| ------------------|------------------|------------------|------------------| ------------------|------------------|------------------|------------------| ------------------|------------------|------------------|------------------| ------------------|------------------|------------------|------------------| ------------------|------------------|------------------|------------------| ------------------|------------------|------------------|------------------| ------------------|------------------|------------------|------------------| ------------------|------------------|------------------|------------------| ------------------|------------------|------------------|------------------| ------------------|------------------|------------------|------------------| ------------------|------------------|------------------|------------------| ------------------|------------------|------------------|------------------| ------------------|------------------|------------------|------------------| ------------------|------------------|------------------|------------------| ------------------|------------------|------------------|------------------| ------------------|------------------|------------------|------------------| ------------------|------------------|------------------|------------------| ------------------|------------------|------------------|------------------| ------------------|------------------|------------------|------------------| ------------------|------------------|------------------|------------------| ------------------|------------------|------------------|------------------| ------------------|------------------|------------------|------------------| ------------------|------------------|------------------|------------------| ------------------|------------------|------------------|------------------| ------------------|------------------|------------------|------------------| ------------------|------------------|------------------|------------------| ------------------|------------------|------------------|------------------| ------------------|------------------|------------------|------------------| ------------------|------------------|------------------|------------------| ------------------|------------------|------------------|------------------| ------------------|------------------|------------------|------------------| ------------------|------------------|------------------|------------------| ------------------|------------------|------------------|------------------| ------------------|------------------|------------------|------------------| ------------------|------------------|------------------|------------------| ------------------|------------------|------------------|------------------| ------------------|------------------|------------------|------------------| ------------------|------------------|------------------|------------------| ------------------|------------------|------------------|------------------| ------------------|------------------|------------------|------------------| ------------------|------------------|------------------|------------------| ------------------|------------------|------------------|------------------| ------------------|------------------|-------------------|-------------------| ------------------|------------------|-------------------|--3----------------| ------------------|------------------|--------------5----|-------------------| ------------------|------------------|-------------------|-------------------| ------------------|------------------|-------------------|-------------------| ------------------|------------------|-------------------|-------------------| --------------------|------------------|---------------------| --10----------------|------------------|--5------------5--6--| --------------------|------------------|---------------------| --------------------|------------------|---------------------| --------------------|------------------|---------------------| --------------------|------------------|---------------------| -------------------|--------------------|--------------------| --8----------------|----------6----8----|--10----------------| -------------------|--------------------|--------------------| -------------------|--------------------|--------------------| -------------------|--------------------|--------------------| -------------------|--------------------|--------------------| -------------------|-------------------|--------------------|------------------| -------------------|--3----------------|--10----------------|------------------| --------------5----|-------------------|--------------------|------------------| -------------------|-------------------|--------------------|------------------| -------------------|-------------------|--------------------|------------------| -------------------|-------------------|--------------------|------------------| ---------------------|-------------------|--------------------| --5------------5--6--|--8----------------|----------6----5----| ---------------------|-------------------|--------------------| ---------------------|-------------------|--------------------| ---------------------|-------------------|--------------------| ---------------------|-------------------|--------------------| -------------------|------------------|---------------------|------------------| --3----------------|------------------|---------------------|------------------| -------------------|------------------|--5--4--2------------|------------------| -------------------|------------------|---------------------|------------------| -------------------|------------------|---------------------|------------------| -------------------|------------------|---------------------|------------------| ---------------------|--------------------|--------------------------| ---------------------|--------------------|--------------------------| --5--4--2------------|----------0----2----|--------------------------| ---------------------|--------------------|--------------------------| ---------------------|--------------------|--7--7--7--7--7--7--7--7--| ---------------------|--------------------|--5--5--5--5--5--5--5--5--| --------------------------|--------------------------|-------------------------| --------------------------|--------------------------|-------------------------| --------------------------|--------------------------|-------------------------| --------------------------|--------------------------|-------------------------| --7--7--7--7--7--7--7--7--|--7--7--7--7--7--7--7--7--|--7--7--7--7--7--5----5--| --5--5--5--5--5--5--5--5--|--5--5--5--5--5--5--5--5--|--5--5--5--5--5--3----3--| --------------------|---------------------|----------------------| --------------------|---------------------|----------------------| --------------------|---------------------|----------------------| --------------------|---------------------|-----------7----10----| --7--------------5--|--7----------5--7----|--7--------5----8-----| --5--------------3--|--5----------3--5----|--5-------------------| ---------------------|--------------------|---------------------| ---------------------|--------------------|---------------------| ---------------------|--------------------|---------------------| ------5--------------|--------------------|---------------------| ------3------5--7----|--7--------------5--|--7----------5--7----| -------------3--5----|--5--------------3--|--5----------3--5----| ----------------------|---------------------|------------------------------| ----------------------|---------------------|------------------------------| ----------------------|---------------------|------------------------------| -----------7----10----|------5--------------|------------------------------| --7--------5----8-----|------3------5--7----|--4---------------------------| --5-------------------|-------------3--5----|--2--2-2-2--2-2-2--2-2-2--2-2-| ---------------------------|--------------------------|---------------------| ---------------------------|--------------------------|---------------------| ---------------------------|--------------------------|---------------------| ---------------------------|----------------4----7----|---------------------| -------------------2--4----|--4-------------2----5----|------7------2--4----| --2--2-2-2--2-2-2--0--2----|--2--2-2-2--2-2-----------|------5------0--2----| ------------------------------|---------------------------| ------------------------------|---------------------------| ------------------------------|---------------------------| ------------------------------|---------------------------| --4---------------------------|-------------------2--4----| --2--2-2-2--2-2-2--2-2-2--2-2-|--2--2-2-2--2-2-2--0--2----| --------------------------|---------------------|------------------------------| --------------------------|---------------------|------------------------------| --------------------------|---------------------|------------------------------| ----------------4----7----|---------------------|--2----2--------3----3--------| --4-------------2----5----|------7------2--4----|-----0----0-0-0----0----0-0-0-| --2--2-2-2--2-2-----------|------5------0--2----|------------------------------| ------------------------------|--------------------|------------------------| ------------------------------|--------------------|------------------------| ------------------------------|-----------7--------|----------5---7---3--3--| --0----0--------2----2--------|--5--------7--------|--7---5---5---7---3--3--| -----0----0-0-0----0----0-0-0-|--5--------5--------|--7---5---3---5---1--1--| ------------------------------|--3-----------------|--5---3-----------------| ------------------------------|------------------------------| ------------------------------|------------------------------| ------------------------------|------------------------------| --2----2--------3----3--------|--0----0--------2----2--------| -----0----0-0-0----0----0-0-0-|-----0----0-0-0----0----0-0-0-| ------------------------------|------------------------------| --------------------|-----------------------|------------------------------| --------------------|-----------------------|------------------------------| -----------7--------|-----------------------|----------------4--4-6--------| --5--------7--------|--3--------2--0--------|--4--4-6-7--6-4--------7-6----| --5--------5--------|--3--------------3--2--|---------------------------7--| --3-----------------|--1--------------------|------------------------------| ----------------------------|------------------------------| ----------------------------|------------------------------| ----------------------------|----------------4--4-6--------| --4--4-6-7-7-6-4-6-----4----|--4--4-6-7--6-4--------7-6----| --------------------7-------|---------------------------7--| ----------------------------|------------------------------| ----------------------------|------------------------------| ----------------------------|------------------------------| ----------------------------|----------------4--4-6--------| --4--4-6-7-7-6-4-6-----4----|--4--4-6-7--6-4--------7-6----| --------------------7-------|---------------------------7--| ----------------------------|------------------------------| ----------------------------|------------------------------| ----------------------------|------------------------------| ----------------------------|----------------4--4-6--------| --4--4-6-7-7-6-4-6-----4----|--4--4-6-7--6-4--------7-6----| --------------------7-------|---------------------------7--| ----------------------------|------------------------------| ----------------------------|------------------------------| ----------------------------|------------------------------| ----------------------------|------------------------------| --4--4-6-7-7-6-4-6-----4----|--2----2--------3----3--------| --------------------7-------|-----0----0-0-0----0----0-0-0-| ----------------------------|------------------------------| ------------------------------|--------------------|------------------------| ------------------------------|--------------------|------------------------| ------------------------------|-----------7--------|----------5---7---3--3--| --0----0--------2----2--------|--5--------7--------|--7---5---5---7---3--3--| -----0----0-0-0----0----0-0-0-|--5--------5--------|--7---5---3---5---1--1--| ------------------------------|--3-----------------|--5---3-----------------| ------------------------------|------------------------------| ------------------------------|------------------------------| ------------------------------|------------------------------| --2----2--------3----3--------|--0----0--------2----2--------| -----0----0-0-0----0----0-0-0-|-----0----0-0-0----0----0-0-0-| ------------------------------|------------------------------| --------------------|-----------------------|--------------------------| --------------------|-----------------------|--------------------------| -----------7--------|-----------------------|--------------------------| --5--------7--------|--3--------2--0--------|--2--0--------2--0--------| --5--------5--------|--3--------------3--2--|--------3--2--------3--2--| --3-----------------|--1--------------------|--------------------------| ----------------------------|-----------------------------| ----------------------------|-----------------------------| ----------------------------|-----------------------------| ----------------------------|-----------------------------| ----------------------------|--1--------------------------| --0--0-0-1--0--0--0-0-1--0--|-----0--1--0-0-0--0-0-0--0-0-| ----------------------------|------------------------------| ----------------------------|------------------------------| ----------------------------|------------------------------| ----------------------------|------------------2-3-2-------| ----------------------------|--1---------------------3-2---| --0--0-0-1--0--0--0-0-1--0--|-----0--1--0--0-0-----------1-| ----------------------------|-----------------------------| ----------------------------|-----------------------------| ----------------------------|-----------------------------| ----------------------------|-----------------------------| ----------------------------|--1--------------------------| --0--0-0-1--0--0--0-0-1--0--|-----0--1--0-0-0--0-0-0--0-0-| ----------------------------|------------------------------|-------------------| ----------------------------|------------------------------|-------------------| ----------------------------|------------------------------|--2----------------| ----------------------------|------------------2-3-2-------|--2----------------| ----------------------------|--1---------------------3-2---|--0----------------| --0--0-0-1--0--0--0-0-1--0--|-----0--1--0--0-0-----------1-|-------------------| -------------------|-------------------|-------------------|-------------------| -------------------|-------------------|-------------------|-------------------| --3----------------|--2----------------|-------------------|--2----------------| --3----------------|--2----------------|--2----------------|--2----------------| --1----------------|--0----------------|--2----------------|--0----------------| -------------------|-------------------|--0----------------|-------------------| -------------------|-------------------|-------------------|-------------------| -------------------|-------------------|-------------------|-------------------| --3----------------|-------------------|--5----------------|--2----------------| --3----------------|--3----------------|--5----------------|--2----------------| --1----------------|--3----------------|--3----------------|--0----------------| -------------------|--1----------------|-------------------|-------------------| -------------------|-------------------|-------------------|-------------------| -------------------|-------------------|-------------------|-------------------| --3----------------|--2----------------|-------------------|--2----------------| --3----------------|--2----------------|--2----------------|--2----------------| --1----------------|--0----------------|--2----------------|--0----------------| -------------------|-------------------|--0----------------|-------------------| -------------------|-------------------|-------------------| -------------------|-------------------|-------------------| --3----------------|-------------------|--5----------------| --3----------------|--3----------------|--5----------------| --1----------------|--3----------------|--3----------------| -------------------|--1----------------|-------------------| ----------------------------|-----------------------------| ----------------------------|-----------------------------| ----------------------------|-----------------------------| ----------------------------|-----------------------------| ----------------------------|--1--------------------------|

    найти лекарство
    список лекарств






    О сайтеАккордыХит-парадПоискУроки ФорумыИщу песню
    ПрограммыСвежачок-сПодпискаСтатьи
    Яндекс.Метрика