Табулатура Nightwish | Fantasmic  (2) гитара табулатуры уроки тексты песен Nightwish текст lyrics песня аккорды песни ноты нота электрогитара струна  
   А Б В Г Д Е Ж З И К Л М Н О П Р С Т У Ф Х Ч Ш Ы Э Ю Я       Разные песни
1-9 A B C D E F G H I J K L M N O P Q R S T U V W Y Z      Все исполнители in english

    



группа Nightwish, Табулатура песни Fantasmic (2)

Работа в Европе для граждан РФ, Украины, СНГ

  • минимальная зарплата $500.
  • виза и контракт на полгода, возможно продление
  • проживание оплачивает работодатель
  • нужен только загранпаспорт
  • оформление 190 €
  • данное предложение - отличная возможность эмигрировать в Европу и закрепиться здесь навсегда.

  • Мы свяжемся с Вами по WhatsApp или Viber и ответим на любые вопросы.
    на нашем сайте можно почитать подробнее »

    Группа: Nightwish - другие аккорды (414),   о группе (12 статей),   диски (6),   фотографии (25)
    Табулатура песни: Fantasmic (2)
    Просмотров: 965
    Прислал: Forever (forever@akkords.ru)




        
                                      FantasMic                                     
    
    Tuomas
                                                                            
    E||------|------|------|------|------|------|--0----------------|------|
    B||------|------|------|------|------|------|--0----------------|------|
    G||------|------|------|------|------|------|-------------------|------|
    D||------|------|------|------|------|------|-------------------|------|
    A||------|------|------|------|------|------|-------------------|------|
    E||------|------|------|------|------|------|-------------------|------|
    
                                                                                  
    --0----------------|------------------|--0----------------|------------------|
    --0----------------|------------------|--0----------------|------------------|
    -------------------|------------------|-------------------|------------------|
    -------------------|------------------|-------------------|------------------|
    -------------------|------------------|-------------------|------------------|
    -------------------|------------------|-------------------|------------------|
    
                                                               
    --0----------------|------------------|--0----------------|
    --0----------------|------------------|--0----------------|
    -------------------|------------------|-------------------|
    -------------------|------------------|-------------------|
    -------------------|------------------|-------------------|
    -------------------|------------------|-------------------|
    
                                                                    
    --5---3---5----------|--3---3---2----------|--0----------------|
    --5---5---7----------|--5---3---2----------|--0----------------|
    ---------------------|---------------------|-------------------|
    ---------------------|---------------------|-------------------|
    ---------------------|---------------------|-------------------|
    ---------------------|---------------------|-------------------|
    
                                                                   
    ------------------|--0----------------|--5---3---5---13-------|
    ------------------|--0----------------|--7---3---5---1--------|
    ------------------|-------------------|-----------------------|
    ------------------|-------------------|-----------------------|
    ------------------|-------------------|-----------------------|
    ------------------|-------------------|-----------------------|
    
                                                               
    --0----------------|------------------|--0----------------|
    --0----------------|------------------|--0----------------|
    -------------------|------------------|-------------------|
    -------------------|------------------|-------------------|
    -------------------|------------------|-------------------|
    -------------------|------------------|-------------------|
    
                                                                         
    --5---3---5----------|--3---3---2----------|------------10--12--8---|
    --5---5---7----------|--5---3---2----------|------------12--14--10--|
    ---------------------|---------------------|------------12--14--10--|
    ---------------------|---------------------|------------------------|
    ---------------------|---------------------|------------------------|
    ---------------------|---------------------|------------------------|
    
                                                                       
    --10----------------|------------10--12--8---|--10----------------|
    --12----------------|------------12--14--10--|--12----------------|
    --12----------------|------------12--14--10--|--12----------------|
    --------------------|------------------------|--------------------|
    --------------------|------------------------|--------------------|
    --------------------|------------------------|--------------------|
    
                                                                           
    ------------10--12--8---|--10----------------|------------10--12--8---|
    ------------12--14--10--|--12----------------|------------12--14--10--|
    ------------12--14--10--|--12----------------|------------12--14--10--|
    ------------------------|--------------------|------------------------|
    ------------------------|--------------------|------------------------|
    ------------------------|--------------------|------------------------|
    
                                                                             
    --10----------------|--------------|--------------|----------|----------|
    --12----------------|--------------|--------------|----------|----------|
    --12----------------|--------------|--------------|----------|----------|
    --------------------|--------------|--------------|----------|----------|
    --------------------|--------------|--------------|----------|----------|
    --------------------|--------------|--------------|----------|----------|
    
                                                                                    
    ----------|----------|----------|----------|----------|----------|------|------|
    ----------|----------|----------|----------|----------|----------|------|------|
    ----------|----------|----------|----------|----------|----------|------|------|
    ----------|----------|----------|----------|----------|----------|------|------|
    ----------|----------|----------|----------|----------|----------|------|------|
    ----------|----------|----------|----------|----------|----------|------|------|
    
                                                                             
    ----------|----------|------|------|------|--------------|--------------|
    ----------|----------|------|------|------|--------------|--------------|
    ----------|----------|------|------|------|--------------|--------------|
    ----------|----------|------|------|------|--------------|--------------|
    ----------|----------|------|------|------|--------------|--------------|
    ----------|----------|------|------|------|--------------|--------------|
    
                                                                                 
    ----------|----------|----------|----------|----------|----------|----------|
    ----------|----------|----------|----------|----------|----------|----------|
    ----------|----------|----------|----------|----------|----------|----------|
    ----------|----------|----------|----------|----------|----------|----------|
    ----------|----------|----------|----------|----------|----------|----------|
    ----------|----------|----------|----------|----------|----------|----------|
    
                                                                                 
    ----------|----------|----------|----------|----------|----------|----------|
    ----------|----------|----------|----------|----------|----------|----------|
    ----------|----------|----------|----------|----------|----------|----------|
    ----------|----------|----------|----------|----------|----------|----------|
    ----------|----------|----------|----------|----------|----------|----------|
    ----------|----------|----------|----------|----------|----------|----------|
    
                                                                  
    ----------|----------|----------|--12--12--12----12----10----|
    ----------|----------|----------|----------------------------|
    ----------|----------|----------|----------------------------|
    ----------|----------|----------|----------------------------|
    ----------|----------|----------|----------------------------|
    ----------|----------|----------|----------------------------|
    
                                                          
    --14------14--14------14--|--14------14--14----12----|
    --------------------------|--------------------------|
    --------------------------|--------------------------|
    --------------------------|--------------------------|
    --------------------------|--------------------------|
    --------------------------|--------------------------|
    
                                                          
    --14------14--14------14--|--14------14--14----12----|
    --------------------------|--------------------------|
    --------------------------|--------------------------|
    --------------------------|--------------------------|
    --------------------------|--------------------------|
    --------------------------|--------------------------|
    
                                                                                    
    --11------11--11------11--|--11------11--11----9----|--11------11--11------11--|
    --------------------------|-------------------------|--------------------------|
    --------------------------|-------------------------|--------------------------|
    --------------------------|-------------------------|--------------------------|
    --------------------------|-------------------------|--------------------------|
    --------------------------|-------------------------|--------------------------|
    
                                                                                    
    --11------11--11----9----|--14------14--14------14--|--14------14--14----12----|
    -------------------------|--------------------------|--------------------------|
    -------------------------|--------------------------|--------------------------|
    -------------------------|--------------------------|--------------------------|
    -------------------------|--------------------------|--------------------------|
    -------------------------|--------------------------|--------------------------|
    
                                                          
    --14------14--14------14--|--14------14--14----12----|
    --------------------------|--------------------------|
    --------------------------|--------------------------|
    --------------------------|--------------------------|
    --------------------------|--------------------------|
    --------------------------|--------------------------|
    
                                                                                    
    --11------11--11------11--|--11------11--11----9----|--11------11--11------11--|
    --------------------------|-------------------------|--------------------------|
    --------------------------|-------------------------|--------------------------|
    --------------------------|-------------------------|--------------------------|
    --------------------------|-------------------------|--------------------------|
    --------------------------|-------------------------|--------------------------|
    
                                                                              
    --11------11--11----9----|--------------|----------|----------|----------|
    -------------------------|--------------|----------|----------|----------|
    -------------------------|--------------|----------|----------|----------|
    -------------------------|--------------|----------|----------|----------|
    -------------------------|--------------|----------|----------|----------|
    -------------------------|--------------|----------|----------|----------|
    
                                                                                    
    --1----------------|--5----------------|--9-----------------|------------------|
    --1----------------|--7----------------|--10----------------|------------------|
    --2----------------|--7----------------|--9-----------------|------------------|
    -------------------|-------------------|--------------------|------------------|
    -------------------|-------------------|--------------------|------------------|
    -------------------|-------------------|--------------------|------------------|
    
                                                                                
    ------------------|------------------|------------------|------------------|
    ------------------|------------------|------------------|------------------|
    ------------------|------------------|------------------|------------------|
    ------------------|------------------|------------------|------------------|
    ------------------|------------------|------------------|------------------|
    ------------------|------------------|------------------|------------------|
    
                                                                                    
    --1----------------|--5----------------|--9-----------------|------------------|
    --1----------------|--7----------------|--10----------------|------------------|
    --2----------------|--7----------------|--9-----------------|------------------|
    -------------------|-------------------|--------------------|------------------|
    -------------------|-------------------|--------------------|------------------|
    -------------------|-------------------|--------------------|------------------|
    
                                                                                
    ------------------|------------------|------------------|------------------|
    ------------------|------------------|------------------|------------------|
    ------------------|------------------|------------------|------------------|
    ------------------|------------------|------------------|------------------|
    ------------------|------------------|------------------|------------------|
    ------------------|------------------|------------------|------------------|
    
                                                                                
    ------------------|------------------|------------------|------------------|
    ------------------|------------------|------------------|------------------|
    ------------------|------------------|------------------|------------------|
    ------------------|------------------|------------------|------------------|
    ------------------|------------------|------------------|------------------|
    ------------------|------------------|------------------|------------------|
    
                                                                                
    ------------------|------------------|------------------|------------------|
    ------------------|------------------|------------------|------------------|
    ------------------|------------------|------------------|------------------|
    ------------------|------------------|------------------|------------------|
    ------------------|------------------|------------------|------------------|
    ------------------|------------------|------------------|------------------|
    
                                                                                 
    ----------|----------|----------|----------|----------|----------|----------|
    ----------|----------|----------|----------|----------|----------|----------|
    ----------|----------|----------|----------|----------|----------|----------|
    ----------|----------|----------|----------|----------|----------|----------|
    ----------|----------|----------|----------|----------|----------|----------|
    ----------|----------|----------|----------|----------|----------|----------|
    
                                                                        
    ----------|------------------|------------------|------------------|
    ----------|------------------|------------------|------------------|
    ----------|------------------|------------------|------------------|
    ----------|------------------|------------------|------------------|
    ----------|------------------|------------------|------------------|
    ----------|------------------|------------------|------------------|
    
                                                                                
    ------------------|------------------|------------------|------------------|
    ------------------|------------------|------------------|------------------|
    ------------------|------------------|------------------|------------------|
    ------------------|------------------|------------------|------------------|
    ------------------|------------------|------------------|------------------|
    ------------------|------------------|------------------|------------------|
    
                                                                                
    ------------------|------------------|------------------|------------------|
    ------------------|------------------|------------------|------------------|
    ------------------|------------------|------------------|------------------|
    ------------------|------------------|------------------|------------------|
    ------------------|------------------|------------------|------------------|
    ------------------|------------------|------------------|------------------|
    
                                                                                
    ------------------|------------------|------------------|------------------|
    ------------------|------------------|------------------|------------------|
    ------------------|------------------|------------------|------------------|
    ------------------|------------------|------------------|------------------|
    ------------------|------------------|------------------|------------------|
    ------------------|------------------|------------------|------------------|
    
                                                                                
    ------------------|------------------|------------------|------------------|
    ------------------|------------------|------------------|------------------|
    ------------------|------------------|------------------|------------------|
    ------------------|------------------|------------------|------------------|
    ------------------|------------------|------------------|------------------|
    ------------------|------------------|------------------|------------------|
    
                                                                                
    ------------------|------------------|------------------|------------------|
    ------------------|------------------|------------------|------------------|
    ------------------|------------------|------------------|------------------|
    ------------------|------------------|------------------|------------------|
    ------------------|------------------|------------------|------------------|
    ------------------|------------------|------------------|------------------|
    
                                                                                
    ------------------|------------------|------------------|------------------|
    ------------------|------------------|------------------|------------------|
    ------------------|------------------|------------------|------------------|
    ------------------|------------------|------------------|------------------|
    ------------------|------------------|------------------|------------------|
    ------------------|------------------|------------------|------------------|
    
                                                                                
    ------------------|------------------|------------------|------------------|
    ------------------|------------------|------------------|------------------|
    ------------------|------------------|------------------|------------------|
    ------------------|------------------|------------------|------------------|
    ------------------|------------------|------------------|------------------|
    ------------------|------------------|------------------|------------------|
    
                                                                                
    ------------------|------------------|------------------|------------------|
    ------------------|------------------|------------------|------------------|
    ------------------|------------------|------------------|------------------|
    
    Узнай ВСЕ о своем друге в ВК или FB
    ------------------|------------------|------------------|------------------| ------------------|------------------|------------------|------------------| ------------------|------------------|------------------|------------------| ------------------|------------------|------------------|------------------| ------------------|------------------|------------------|------------------| ------------------|------------------|------------------|------------------| ------------------|------------------|------------------|------------------| ------------------|------------------|------------------|------------------| ------------------|------------------|------------------|------------------| ------------------|------------------|------------------|------------------| ------------------|------------------|------------------|------------------| ------------------|------------------|------------------|------------------| ------------------|------------------|------------------|------------------| ------------------|------------------|------------------|------------------| ------------------|------------------|------------------|------------------| ------------------|------------------|------------------|------------------| ------------------|------------------|------------------|------------------| ------------------|------------------|------------------|------------------| ------------------|------------------|------------------|------------------| ------------------|------------------|------------------|------------------| ------------------|------------------|------------------|------------------| ------------------|--17--17-19-20--19-17-22--22-24-20-19-15--| ------------------|------------------------------------------| ------------------|------------------------------------------| ------------------|------------------------------------------| ------------------|------------------------------------------| ------------------|------------------------------------------| --17--17-19-20-20-19-17-19--15--17----| --------------------------------------| --------------------------------------| --------------------------------------| --------------------------------------| --------------------------------------| --17--17-19-20--19-17-22--22-24-20-19-15--| ------------------------------------------| ------------------------------------------| ------------------------------------------| ------------------------------------------| ------------------------------------------| --17--17-19-20-20-19-17-19--15--17----| --------------------------------------| --------------------------------------| --------------------------------------| --------------------------------------| --------------------------------------| --17--17-19-20--19-17-22--22-24-20-19-15--| ------------------------------------------| ------------------------------------------| ------------------------------------------| ------------------------------------------| ------------------------------------------| --17--17-19-20-20-19-17-19--15--17----| --------------------------------------| --------------------------------------| --------------------------------------| --------------------------------------| --------------------------------------| --17--17-19-20--19-17-22--22-24-20-19-15--| ------------------------------------------| ------------------------------------------| ------------------------------------------| ------------------------------------------| ------------------------------------------| --17--17-19-20-20-19-17-19--15--17----| --------------------------------------| --------------------------------------| --------------------------------------| --------------------------------------| --------------------------------------| --14--14-16-17--16-14-19--19-21-17-16-12--| ------------------------------------------| ------------------------------------------| ------------------------------------------| ------------------------------------------| ------------------------------------------| --14--14-16-17-17-16-14-16--12--14----| --------------------------------------| --------------------------------------| --------------------------------------| --------------------------------------| --------------------------------------| --14--14-16-17--16-14-19--19-21-17-16-12--| ------------------------------------------| ------------------------------------------| ------------------------------------------| ------------------------------------------| ------------------------------------------| --14--14-16-17-17-16-14-16--12--14----| --------------------------------------| --------------------------------------| --------------------------------------| --------------------------------------| --------------------------------------| --14--14-16-17--16-14-19--19-21-17-16-12--| ------------------------------------------| ------------------------------------------| ------------------------------------------| ------------------------------------------| ------------------------------------------| --14--14-16-17-17-16-14-16--12--14----| --------------------------------------| --------------------------------------| --------------------------------------| --------------------------------------| --------------------------------------| --14--14-16-17--16-14-19--19-21-17-16-12--| ------------------------------------------| ------------------------------------------| ------------------------------------------| ------------------------------------------| ------------------------------------------| --14--14-16-17-17-16-14-16--12--14----|------|------|------| --------------------------------------|------|------|------| --------------------------------------|------|------|------| --------------------------------------|------|------|------| --------------------------------------|------|------|------| --------------------------------------|------|------|------| --5---3---3---5---13--13--|------|------|------|------|------------------| --5---3---5---7---15--15--|------|------|------|------|------------------| ------------------15--15--|------|------|------|------|------------------| --------------------------|------|------|------|------|------------------| --------------------------|------|------|------|------|------------------| --------------------------|------|------|------|------|------------------| ------------------|------------------|------------------|------------------| ------------------|------------------|------------------|------------------| ------------------|------------------|------------------|------------------| ------------------|------------------|------------------|------------------| ------------------|------------------|------------------|------------------| ------------------|------------------|------------------|------------------| ------------------|------------------|------------------|------|------|------| ------------------|------------------|------------------|------|------|------| ------------------|------------------|------------------|------|------|------| ------------------|------------------|------------------|------|------|------| ------------------|------------------|------------------|------|------|------| ------------------|------------------|------------------|------|------|------| ------|------|------|------|------|------|------|------|------|------|------| ------|------|------|------|------|------|------|------|------|------|------| ------|------|------|------|------|------|------|------|------|------|------| ------|------|------|------|------|------|------|------|------|------|------| ------|------|------|------|------|------|------|------|------|------|------| ------|------|------|------|------|------|------|------|------|------|------| ------|------|------|------|------|------|------|------|------|------|------| ------|------|------|------|------|------|------|------|------|------|------| ------|------|------|------|------|------|------|------|------|------|------| ------|------|------|------|------|------|------|------|------|------|------| ------|------|------|------|------|------|------|------|------|------|------| ------|------|------|------|------|------|------|------|------|------|------| ------|------|------|------|------|------|------|------|------|------|------| ------|------|------|------|------|------|------|------|------|------|------| ------|------|------|------|------|------|------|------|------|------|------| ------|------|------|------|------|------|------|------|------|------|------| ------|------|------|------|------|------|------|------|------|------|------| ------|------|------|------|------|------|------|------|------|------|------| ------|------|------|------|------|------|------|------|------|------|------| ------|------|------|------|------|------|------|------|------|------|------| ------|------|------|------|------|------|------|------|------|------|------| ------|------|------|------|------|------|------|------|------|------|------| ------|------|------|------|------|------|------|------|------|------|------| ------|------|------|------|------|------|------|------|------|------|------| ------|------|--11------11--11------11--|--11------11--11----9----| ------|------|--------------------------|-------------------------| ------|------|--------------------------|-------------------------| ------|------|--------------------------|-------------------------| ------|------|--------------------------|-------------------------| ------|------|--------------------------|-------------------------| --11------11--11------11--|--11------11--11----9----|--14------14--14------14--| --------------------------|-------------------------|--------------------------| --------------------------|-------------------------|--------------------------| --------------------------|-------------------------|--------------------------| --------------------------|-------------------------|--------------------------| --------------------------|-------------------------|--------------------------| --14------14--14----12----|--14------14--14------14--| --------------------------|--------------------------| --------------------------|--------------------------| --------------------------|--------------------------| --------------------------|--------------------------| --------------------------|--------------------------| --14------14--14----12----|--11------11--11------11--|--11------11--11----9----| --------------------------|--------------------------|-------------------------| --------------------------|--------------------------|-------------------------| --------------------------|--------------------------|-------------------------| --------------------------|--------------------------|-------------------------| --------------------------|--------------------------|-------------------------| --11------11--11------11--|--11------11--11----9----|------| --------------------------|-------------------------|------| --------------------------|-------------------------|------| --------------------------|-------------------------|------| --------------------------|-------------------------|------| --------------------------|-------------------------|------| --17------17--17------17--|--17------17--17----15----| --------------------------|--------------------------| --------------------------|--------------------------| --------------------------|--------------------------| --------------------------|--------------------------| --------------------------|--------------------------| --17------17--17------17--|--17------17--17----15----|--13------12------10----| --------------------------|--------------------------|------------------------| --------------------------|--------------------------|------------------------| --------------------------|--------------------------|------------------------| --------------------------|--------------------------|------------------------| --------------------------|--------------------------|------------------------| --15--------17----17----|--17------17--17------17--|--17------17--17----15----| ------------------------|--------------------------|--------------------------| ------------------------|--------------------------|--------------------------| ------------------------|--------------------------|--------------------------| ------------------------|--------------------------|--------------------------| ------------------------|--------------------------|--------------------------| --17------17--17------17--|--17------17--17----15----|--13------12------10----| --------------------------|--------------------------|------------------------| --------------------------|--------------------------|------------------------| --------------------------|--------------------------|------------------------| --------------------------|--------------------------|------------------------| --------------------------|--------------------------|------------------------| --15--------13----12----|------|------------15-15-15--15--| ------------------------|------|------------15-15-15--15--| ------------------------|------|--------------------------| ------------------------|------|--------------------------| ------------------------|------|--------------------------| ------------------------|------|--------------------------| --17----------------|| --17----------------|| --------------------|| --------------------|| --------------------|| --------------------||

    найти лекарство
    список лекарств






    О сайтеАккордыХит-парадПоискУроки ФорумыИщу песню
    ПрограммыСвежачок-сПодпискаСтатьи
    Яндекс.Метрика