Табулатура Nightwish | Fantasmic гитара табулатуры уроки тексты песен Nightwish текст lyrics песня аккорды песни ноты нота электрогитара струна  
   А Б В Г Д Е Ж З И К Л М Н О П Р С Т У Ф Х Ч Ш Ы Э Ю Я       Разные песни
1-9 A B C D E F G H I J K L M N O P Q R S T U V W Y Z      Все исполнители in english

    



группа Nightwish, Табулатура песни Fantasmic

Продолжаем грести бабос на ботах в Telegram.
Только в этот раз есть вариант автоматизировать это дело, привлекая рефералов. Вы можете заработать если »

Группа: Nightwish - другие аккорды (414),   о группе (12 статей),   диски (6),   фотографии (25)
Табулатура песни: Fantasmic
Просмотров: 1115
Прислал: Forever (forever@akkords.ru)




    
                                  FantasMic                                     

Tuomas
                                                                             
E||------------------------------------|------------------------------------|
B||------------------------------------|------------------------------------|
G||-------------7---9------------------|------------------------------------|
D||--9---9-10-----------9---9-10---7---|--9---9-7---------------------------|
A||----7------7---7---7---7------7---7-|----7-----7-10-7-9-7-9-10-7-9-7-6-7-|
E||------------------------------------|------------------------------------|

                                                                          
------------------------------------|------------------------------------|
------------------------------------|------------------------------------|
-------------7---9------------------|------------------------------------|
--9---9-10-----------9---9-10---7---|--9---9-7---------------------------|
----7------7---7---7---7------7---7-|----7-----7-10-7-9-7-9-10-7-9-7-6-7-|
------------------------------------|------------------------------------|

                                                                          
------------------------------------|------------------------------------|
------------------------------------|------------------------------------|
-------------7---9------------------|------------------------------------|
--9---9-10-----------9---9-10---7---|--9---9-7---------------------------|
----7------7---7---7---7------7---7-|----7-----7-10-7-9-7-9-10-7-9-7-6-7-|
------------------------------------|------------------------------------|

                                     
------------------------------------|
------------------------------------|
-------------7---9------------------|
--9---9-10-----------9---9-10---7---|
----7------7---7---7---7------7---7-|
------------------------------------|

                                                      
-----------------------------------------------------|
-----------------------------------------------------|
-----------------------------------------------------|
--9---9-7--------------------------------------------|
----7-----7-10-7-9-7-9-10-7-9-7-6-7-7-9-10-7-9-7-6-7-|
-----------------------------------------------------|

                                                                          
------------------------------------|------------------------------------|
------------------------------------|------------------------------------|
-------------7---9------------------|------------------------------------|
--9---9-10-----------9---9-10---7---|--9---9-7---------------------------|
----7------7---7---7---7------7---7-|----7-----7-10-7-9-7-9-10-7-9-7-6-7-|
------------------------------------|------------------------------------|

                                                                          
------------------------------------|------------------------------------|
------------------------------------|------------------------------------|
-------------7---9------------------|------------------------------------|
--9---9-10-----------9---9-10---7---|--9---9-7---------------------------|
----7------7---7---7---7------7---7-|----7-----7-10-7-9-7-9-10-7-9-7-6-7-|
------------------------------------|------------------------------------|

                                                                          
------------------------------------|------------------------------------|
------------------------------------|------------------------------------|
-------------7---9------------------|------------------------------------|
--9---9-10-----------9---9-10---7---|--9---9-7---------------------------|
----7------7---7---7---7------7---7-|----7-----7-10-7-9-7-9-10-7-9-7-6-7-|
------------------------------------|------------------------------------|

                                                           
------------------------------------|--5---3---5----------|
------------------------------------|--5---5---7----------|
-------------7---9------------------|---------------------|
--9---9-10-----------9---9-10---7---|---------------------|
----7------7---7---7---7------7---7-|---------------------|
------------------------------------|---------------------|

                                                           
--3---3---2----------|------------------------------------|
--5---3---2----------|------------------------------------|
---------------------|-------------7---9------------------|
---------------------|--9---9-10-----------9---9-10---7---|
---------------------|----7------7---7---7---7------7---7-|
---------------------|------------------------------------|

                                                                          
------------------------------------|------------------------------------|
------------------------------------|------------------------------------|
------------------------------------|-------------7---9------------------|
--9---9-7---------------------------|--9---9-10-----------9---9-10---7---|
----7-----7-10-7-9-7-9-10-7-9-7-6-7-|----7------7---7---7---7------7---7-|
------------------------------------|------------------------------------|

                                                             
--5---3---5---13-------|------------------------------------|
--7---3---5---1--------|------------------------------------|
-----------------------|-------------7---9------------------|
-----------------------|--9---9-10-----------9---9-10---7---|
-----------------------|----7------7---7---7---7------7---7-|
-----------------------|------------------------------------|

                                                                          
------------------------------------|------------------------------------|
------------------------------------|------------------------------------|
------------------------------------|-------------7---9------------------|
--9---9-7---------------------------|--9---9-10-----------9---9-10---7---|
----7-----7-10-7-9-7-9-10-7-9-7-6-7-|----7------7---7---7---7------7---7-|
------------------------------------|------------------------------------|

                                                                                
--5---3---5----------|--3---3---2----------|---|---|---|---|---|---|---|---|---|
--5---5---7----------|--5---3---2----------|---|---|---|---|---|---|---|---|---|
---------------------|---------------------|---|---|---|---|---|---|---|---|---|
---------------------|---------------------|---|---|---|---|---|---|---|---|---|
---------------------|---------------------|---|---|---|---|---|---|---|---|---|
---------------------|---------------------|---|---|---|---|---|---|---|---|---|

                                                               
---|---|---|---|---|---|---|----------------------------------|
---|---|---|---|---|---|---|----------------------------------|
---|---|---|---|---|---|---|------------4---6-----------------|
---|---|---|---|---|---|---|--6---6-7-----------6---6-7---4---|
---|---|---|---|---|---|---|----4-----4---4---4---4-----4---4-|
---|---|---|---|---|---|---|----------------------------------|

                                                                      
----------------------------------|----------------------------------|
----------------------------------|----------------------------------|
----------------------------------|------------4---6-----------------|
--6---6-4-------------------------|--6---6-7-----------6---6-7---4---|
----4-----4-7-4-6-4-6-7-4-6-4-3-4-|----4-----4---4---4---4-----4---4-|
----------------------------------|----------------------------------|

                                                                      
----------------------------------|----------------------------------|
----------------------------------|----------------------------------|
----------------------------------|------------4---6-----------------|
--6---6-4-------------------------|--6---6-7-----------6---6-7---4---|
----4-----4-7-4-6-4-6-7-4-6-4-3-4-|----4-----4---4---4---4-----4---4-|
----------------------------------|----------------------------------|

                                                                      
----------------------------------|----------------------------------|
----------------------------------|----------------------------------|
----------------------------------|------------4---6-----------------|
--6---6-4-------------------------|--6---6-7-----------6---6-7---4---|
----4-----4-7-4-6-4-6-7-4-6-4-3-4-|----4-----4---4---4---4-----4---4-|
----------------------------------|----------------------------------|

                                                                                
--0---2---5----------|--5---0--------------|---|---|---|---|---|---|---|---|---|
--0---4---5----------|--5---0---4----------|---|---|---|---|---|---|---|---|---|
---------------------|----------5----------|---|---|---|---|---|---|---|---|---|
---------------------|---------------------|---|---|---|---|---|---|---|---|---|
---------------------|---------------------|---|---|---|---|---|---|---|---|---|
---------------------|---------------------|---|---|---|---|---|---|---|---|---|

                                                                                
---|---|---|---|---|---|---|---|---|---|---|---|---|---|---|---|---|---|---|---|
---|---|---|---|---|---|---|---|---|---|---|---|---|---|---|---|---|---|---|---|
---|---|---|---|---|---|---|---|---|---|---|---|---|---|---|---|---|---|---|---|
---|---|---|---|---|---|---|---|---|---|---|---|---|---|---|---|---|---|---|---|
---|---|---|---|---|---|---|---|---|---|---|---|---|---|---|---|---|---|---|---|
---|---|---|---|---|---|---|---|---|---|---|---|---|---|---|---|---|---|---|---|

                                               

Продолжаем грести бабос на ботах в Telegram.
Только в этот раз есть вариант автоматизировать это дело, привлекая рефералов. Вы можете заработать если »

---|---|---|---|---|---|---|------------------| ---|---|---|---|---|---|---|------------------| ---|---|---|---|---|---|---|------------------| ---|---|---|---|---|---|---|------------------| ---|---|---|---|---|---|---|------------------| ---|---|---|---|---|---|---|------------------| ---------------------------------|---|--------------------------|---|---|---| ---------3---5---6---5---3---5---|---|------------5-------------|---|---|---| --0-0-0----0---0---0---0---0---0-|---|--5-5-5--7-----7--4-------|---|---|---| ---------------------------------|---|---------------------5----|---|---|---| ---------------------------------|---|--------------------------|---|---|---| ---------------------------------|---|--------------------------|---|---|---| ---|---|---------------------------------|---|--------------------------|---| ---|---|---------3---5---6---5---3---5---|---|------------5-------------|---| ---|---|--0-0-0----0---0---0---0---0---0-|---|--5-5-5--7-----7--4-------|---| ---|---|---------------------------------|---|---------------------5----|---| ---|---|---------------------------------|---|--------------------------|---| ---|---|---------------------------------|---|--------------------------|---| ---|---|---|---|---|---|---|---|---|---|---|---|---|---|---|---|---|---|---|---| ---|---|---|---|---|---|---|---|---|---|---|---|---|---|---|---|---|---|---|---| ---|---|---|---|---|---|---|---|---|---|---|---|---|---|---|---|---|---|---|---| ---|---|---|---|---|---|---|---|---|---|---|---|---|---|---|---|---|---|---|---| ---|---|---|---|---|---|---|---|---|---|---|---|---|---|---|---|---|---|---|---| ---|---|---|---|---|---|---|---|---|---|---|---|---|---|---|---|---|---|---|---| ---|---|---|---|---|---|---|---|---|---|---|---|---|---|---|---|---|---|---|---| ---|---|---|---|---|---|---|---|---|---|---|---|---|---|---|---|---|---|---|---| ---|---|---|---|---|---|---|---|---|---|---|---|---|---|---|---|---|---|---|---| ---|---|---|---|---|---|---|---|---|---|---|---|---|---|---|---|---|---|---|---| ---|---|---|---|---|---|---|---|---|---|---|---|---|---|---|---|---|---|---|---| ---|---|---|---|---|---|---|---|---|---|---|---|---|---|---|---|---|---|---|---| ---|---|---|---|---|---|---|---|---|---|---|---|---|---|---|---|---|---|---|---| ---|---|---|---|---|---|---|---|---|---|---|---|---|---|---|---|---|---|---|---| ---|---|---|---|---|---|---|---|---|---|---|---|---|---|---|---|---|---|---|---| ---|---|---|---|---|---|---|---|---|---|---|---|---|---|---|---|---|---|---|---| ---|---|---|---|---|---|---|---|---|---|---|---|---|---|---|---|---|---|---|---| ---|---|---|---|---|---|---|---|---|---|---|---|---|---|---|---|---|---|---|---| ---|---|---|---|---|---|---|---|---|---|---|---|---|---|---| ---|---|---|---|---|---|---|---|---|---|---|---|---|---|---| ---|---|---|---|---|---|---|---|---|---|---|---|---|---|---| ---|---|---|---|---|---|---|---|---|---|---|---|---|---|---| ---|---|---|---|---|---|---|---|---|---|---|---|---|---|---| ---|---|---|---|---|---|---|---|---|---|---|---|---|---|---| --12--12-14-15--14-12-17--17-19-15-14-10--| ------------------------------------------| ------------------------------------------| ------------------------------------------| ------------------------------------------| ------------------------------------------| --12--12-14-15-15-14-12-14--10--12----| --------------------------------------| --------------------------------------| --------------------------------------| --------------------------------------| --------------------------------------| --12--12-14-15--14-12-17--17-19-15-14-10--| ------------------------------------------| ------------------------------------------| ------------------------------------------| ------------------------------------------| ------------------------------------------| --12--12-14-15-15-14-12-14--10--12----|--2--2-4-5--4-2-7--7-9-5-4-0--| --------------------------------------|------------------------------| --------------------------------------|------------------------------| --------------------------------------|------------------------------| --------------------------------------|------------------------------| --------------------------------------|------------------------------| --2--2-4-5-5-4-2-4--0--2----|--2--2-4-5--4-2-7--7-9-5-4-0--| ----------------------------|------------------------------| ----------------------------|------------------------------| ----------------------------|------------------------------| ----------------------------|------------------------------| ----------------------------|------------------------------| --2--2-4-5-5-4-2-4--0--2----|--2--2-4-5--4-2-7--7-9-5-4-0--| ----------------------------|------------------------------| ----------------------------|------------------------------| ----------------------------|------------------------------| ----------------------------|------------------------------| ----------------------------|------------------------------| --2--2-4-5-5-4-2-4--0--2----|--2--2-4-5--4-2-7--7-9-5-4-0--| ----------------------------|------------------------------| ----------------------------|------------------------------| ----------------------------|------------------------------| ----------------------------|------------------------------| ----------------------------|------------------------------| --2--2-4-5-5-4-2-4--0--2----|---|---|---|---|---|---|---|---|---|---|---|---| ----------------------------|---|---|---|---|---|---|---|---|---|---|---|---| ----------------------------|---|---|---|---|---|---|---|---|---|---|---|---| ----------------------------|---|---|---|---|---|---|---|---|---|---|---|---| ----------------------------|---|---|---|---|---|---|---|---|---|---|---|---| ----------------------------|---|---|---|---|---|---|---|---|---|---|---|---| ---|---|---|---|---|---|---|---|---|---|---|---|---|---|---|---|---|---|---|---| ---|---|---|---|---|---|---|---|---|---|---|---|---|---|---|---|---|---|---|---| ---|---|---|---|---|---|---|---|---|---|---|---|---|---|---|---|---|---|---|---| ---|---|---|---|---|---|---|---|---|---|---|---|---|---|---|---|---|---|---|---| ---|---|---|---|---|---|---|---|---|---|---|---|---|---|---|---|---|---|---|---| ---|---|---|---|---|---|---|---|---|---|---|---|---|---|---|---|---|---|---|---| ---|---|---|---|---|---|---|---|---|---|---|---|---|---|---|---|---|---|---|---| ---|---|---|---|---|---|---|---|---|---|---|---|---|---|---|---|---|---|---|---| ---|---|---|---|---|---|---|---|---|---|---|---|---|---|---|---|---|---|---|---| ---|---|---|---|---|---|---|---|---|---|---|---|---|---|---|---|---|---|---|---| ---|---|---|---|---|---|---|---|---|---|---|---|---|---|---|---|---|---|---|---| ---|---|---|---|---|---|---|---|---|---|---|---|---|---|---|---|---|---|---|---| ---|---|---|---|---|---|---|---|---|---|---|---|---|---|---|---|---|---|---|---| ---|---|---|---|---|---|---|---|---|---|---|---|---|---|---|---|---|---|---|---| ---|---|---|---|---|---|---|---|---|---|---|---|---|---|---|---|---|---|---|---| ---|---|---|---|---|---|---|---|---|---|---|---|---|---|---|---|---|---|---|---| ---|---|---|---|---|---|---|---|---|---|---|---|---|---|---|---|---|---|---|---| ---|---|---|---|---|---|---|---|---|---|---|---|---|---|---|---|---|---|---|---| ---|---|---|---|---|---|---|---|---|---|---|---|---|---|---|---|---|---|---|---| ---|---|---|---|---|---|---|---|---|---|---|---|---|---|---|---|---|---|---|---| ---|---|---|---|---|---|---|---|---|---|---|---|---|---|---|---|---|---|---|---| ---|---|---|---|---|---|---|---|---|---|---|---|---|---|---|---|---|---|---|---| ---|---|---|---|---|---|---|---|---|---|---|---|---|---|---|---|---|---|---|---| ---|---|---|---|---|---|---|---|---|---|---|---|---|---|---|---|---|---|---|---| ---|| ---|| ---|| ---|| ---|| ---||

лекарство в аптеке
список лекарств






О сайтеАккордыХит-парадПоискУроки ФорумыИщу песню
ПрограммыСвежачок-сПодпискаСтатьи
Яндекс.Метрика