Табулатура Ария | Я Свободен гитара табулатуры уроки тексты песен Ария текст lyrics песня аккорды песни ноты нота электрогитара струна  
   А Б В Г Д Е Ж З И К Л М Н О П Р С Т У Ф Х Ч Ш Ы Э Ю Я       Разные песни
1-9 A B C D E F G H I J K L M N O P Q R S T U V W Y Z      Все исполнители in english

    



группа Ария, Табулатура песни Я Свободен

Продолжаем грести бабос на ботах в Telegram.
Только в этот раз есть вариант автоматизировать это дело, привлекая рефералов. Вы можете заработать если »

Группа: Ария - другие аккорды (629),   о группе (7 статей),   диски (18),   фотографии (92)
Табулатура песни: Я Свободен
Просмотров: 7673
Прислал: axy34 (wetrt@YANDEX.RU)




    
VoiceE|----------------------------------|
     H|----------------------------------|
     G|----------------------------------|
     D|--------------------------8----6--|
     A|----------------------------------|
     E|------------------------ Na - do  |
      |                                  |
SynthE|--3-------3-------3-------3-------|
     H|--4-------4-------4-------4-------|
     G|--5-------5-------5-------5-------|
     D|----------------------------------|
     A|----------------------------------|
     E|----------------------------------|
 
VoiceE|--------------------------------------------------------------------|
     H|------------------------------8-8---9-----8-6--9----8------8------8-|
     G|----------5-----7-8-------------------------------------------------|
     D|----5-5-------------------------------------------------------------|
     A|--------------------------------------------------------------------|
     E|- mnoyu  ti - shina,         nebo  pol - noye dozhdya.    Dozhd' pro|
      |                                  |                                 |
SynthE|--3-------3-------3-------3-------|-4-------4-------3-------3-------|
     H|--4-------4-------4-------4-------|-6-------6-------4-------4-------|
     G|--5-------5-------5-------5-------|-5-------5-------5-------5-------|
     D|----------------------------------|---------------------------------|
     A|----------------------------------|---------------------------------|
     E|----------------------------------|---------------------------------|
 
VoiceE|--------------------------------------------------------------------|
     H|--9-8-----6----9--8------8--6-------6-------------------------------|
     G|---------------------------------8-------8--7-----------------------|
     D|------------------------------------------------------------8---6---|
     A|--------------------------------------------------------------------|
     E| hodit skvoz' menya,    no bo - li bol'she net.            Pod ho - |
      |                                  |                                 |
SynthE|--4-------4-------3-------3-------|-1-------1-------1-------1-------|
     H|--6-------6-------4-------4-------|-3-------3-------3-------3-------|
     G|--5-------5-------5-------5-------|-3-------3-------3-------3-------|
     D|----------------------------------|---------------------------------|
     A|----------------------------------|---------------------------------|
     E|----------------------------------|---------------------------------|
 
VoiceE|--------------------------------------------------------------------|
     H|----------------------------8--8----9--8--6--9---8---------8----8---|
     G|-----------5-7-----8------------------------------------------------|
     D|--5--5--------------------------------------------------------------|
     A|--------------------------------------------------------------------|
     E| lodnyy shyopot zvyozd     my sozhgli posledniy most,      i vsyo v |
      |                                  |                                 |
SynthE|--3-------3-------3-------3-------|-4-------4-------3-------3-------|
     H|--4-------4-------4-------4-------|-6-------6-------4-------4-------|
     G|--5-------5-------5-------5-------|-5-------5-------5-------5-------|
     D|----------------------------------|---------------------------------|
     A|----------------------------------|---------------------------------|
     E|----------------------------------|---------------------------------|
 
VoiceE|--------------------------------------------------------------------|
     H|--9---8---6--9-8----------8--6------6-------------------6-----------|
     G|--------------------------------8------8--7------------------8---7--|
     D|--------------------------------------------------------------------|
     A|--------------------------------------------------------------------|
     E| bezdnu  sorvalos'   -   svobodnym stanu ya             ot zla   i  |
      |                                  |                                 |
SynthE|--4-------4-------3-------3-------|-1-------1-------1-------1-------|
     H|--6-------6-------4-------4-------|-3-------3-------3-------3-------|
     G|--5-------5-------5-------5-------|-3-------3-------3-------3-------|
     D|----------------------------------|---------------------------------|
     A|----------------------------------|---------------------------------|
     E|----------------------------------|---------------------------------|
 
VoiceE|--------------------------------------------------------------------|
     H|--------------------------------------------------------------------|
     G|-8---7--5------------5----7---5-----4--------4---5--7------8----7---|
     D|-------------------------------------------5-------------5----------|
     A|--------------------------------------------------------------------|
     E| ot dobra.          Mo - ya  du - sha     byla  na lez - vii   no - |
      |                                  |                                 |
SynthE|----------------------------------|---------------------------------|
     H|----------------------------------|-3-------3-------3-------3-------|
     G|--5-------5-------5-------5-------|-4-------4-------4-------4-------|
     D|--6-------6-------6-------6-------|-5-------5-------5-------5-------|
     A|--6-------6-------6-------6-------|-5-------5-------5-------5-------|
     E|----------------------------------|---------------------------------|
(1:31 - 1:43)
CHORUS:
VoiceE|--------------------------------------------------------------------|
     H|--------------------------------------------------------------------|
     G|--5-----------------------------------------------------------------|
     D|--------------------------------------------------------------------|
     A|--------------------------------------------------------------------|
     E| zha.  -------------------------------------------------------------|
      |                                  |                                 |
Gtr. E|--3-------3-----3-3-3-3---3-3-3---|-6---6---6---6-6-6-6-6---6---6-6-|
     H|--4-------4-----4-4-4-4---4-4-4---|-8---8---8---8-8-6-6-6---6---6-6-|
     G|--5-------5-----5-5-5-5---5-5-5---|-8---8---8---8-8-7-7-7---7---7-7-|
     D|--5-------5-----5-5-5-5---5-5-5---|-8---8---8---8-8-8-8-8---8---8-8-|
     A|--3-------3-----3-3-3-3---3-3-3---|-6---6---6---6-6-8-8-8---8---8-8-|
     E|----------------------------------|-----------------6-6-6---6---6-6-|
      |                                  |                                 |
Bass G|----------------------------------|---------------------------------|
     D|----------------------------------|---------------------------------|
     A|--3---------------3-5-3-------3-5-|-6-----------6-5-3---------------|
     E|----------------3-----------------|-------------------6-6-----------|
 
                                                                    Ya  by
Gtr. E|--3-------3-----3-3-3-3---3-3-3---|-6---6---6-6-6-6-6---------------|
     H|--4-------4-----4-4-4-4---4-4-4---|-8---8---8-8-8-8-6---------------|
     G|--5-------5-----5-5-5-5---5-5-5---|-8---8---8-8-8-8-7---R-----------|
     D|--5-------5-----5-5-5-5---5-5-5---|-8---8---8-8-8-8-8---E-----------|
     A|--3-------3-----3-3-3-3---3-3-3---|-6---6---6-6-6-6-8---S-----------|
     E|----------------------------------|---------------------T-----------|
(1:44 - 2:18)
VERSE 2:
VoiceE|--------------------------------------------------------------------|
     H|------------------------------8--8--9-----8----6--9--8-------8---8--|
     G|----------5----7--8-------------------------------------------------|
     D|--5-----5-----------------------------------------------------------|
     A|--------------------------------------------------------------------|
     E| mog s tobo - yu byt',       ya by mog  pro vsyo zabyt',    ya  by  |
      |                                  |                                 |
Gtr. E|--3-------3-----3-3-3-3---3-3-3---|-4-------4---4-4-3-3-3---3---3---|
     H|--4-------4-----4-4-4-4---4-4-4---|-6-------6---6-6-4-4-4---4---4---|
     G|--5-------5-----5-5-5-5---5-5-5---|-5-------5---5-5-5-5-5---5---5---|
     D|--5-------5-----5-5-5-5---5-5-5---|-3-------3---3-3-5-5-5---5---5---|
     A|--3-------3-----3-3-3-3---3-3-3---|-----------------3-3-3---3---3---|
     E|----------------------------------|---------------------------------|
 
VoiceE|--------------------------------------------------------------------|
     H|--9----8--6-----9-8-------8-6-------6-------------------------------|
     G|---------------------------------8-------8--7-----------------------|
     D|---------------------------------------------------------------8-6--|
     A|--------------------------------------------------------------------|
     E| mog  tebya   lyubit',   no e - to lish' igra.             V shume  |
      |                                  |                                 |
Gtr. E|--4-------4---4-4-3-3-3---3---3---|-1-------1-----1-1-1-1---1---1---|
     H|--6-------6---6-6-4-4-4---4---4---|-3-------3-----3-3-3-3---3---3---|
     G|--5-------5---5-5-5-5-5---5---5---|-3-------3-----3-3-3-3---3---3---|
     D|--3-------3---3-3-5-5-5---5---5---|-3-------3-----3-3-3-3---3---3---|
     A|------------------3-3-3---3---3---|-1-------1-----1-1-1-1---1---1---|
     E|----------------------------------|---------------------------------|
 
VoiceE|----------------------------------------------------8---------------|
     H|------------------------------8---8-9-8----6-----------------8--8---|
     G|----------5-----7-8--------------------------8----------------------|
     D|--5--5--------------------------------------------------------------|
     A|--------------------------------------------------------------------|
     E| vetra   za   spinoy         ya  zabudu   golos   tvoy,      i  ot  |
      |                                  |                                 |
Gtr. E|--3-------3-------3-------3-------|-4-------4-------3-------3-------|
     H|--4-------4-------4-------4-------|-6-------6-------4-------4-------|
     G|--5---|-|-5---|-|-5---|-|-5---|-|-|-5---|-|-5---|-|-5---|-|-5---|-|-|
     D|--5---|-|-5---|-|-5---|-|-5---|-|-|-4---|-|-4---|-|-5---|-|-5---|-|-|
     A|--3---|-|-3---|-|-3---|-|-3---|-|-|-4---|-|-4---|-|-3---|-|-3---|-|-|
     E|--3-------3-------3-------3-------|-4-------4-------3-------3-------|
 
VoiceE|--------------------------------------------------------------------|

Продолжаем грести бабос на ботах в Telegram.
Только в этот раз есть вариант автоматизировать это дело, привлекая рефералов. Вы можете заработать если »

H|--9----8--6---9--8-------8--6-------6-------------------------------| G|----------------------------------8---8-----7---------------8----7--| D|--------------------------------------------------------------------| A|--------------------------------------------------------------------| E| toy lyubvi zemnoy, chto nas szhigala v prah, ya sho- | | | | Gtr. E|--4-------4-------3-------3-------|-1-------1-------1-------1-------| H|--6-------6-------4-------4-------|-3-------3-------3-------3-------| G|--5---|-|-5---|-|-5---|-|-5---|-|-|-3---|-|-3---|-|-3---|-|-3---|-|-| D|--4---|-|-4---|-|-5---|-|-5---|-|-|-3---|-|-3---|-|-3---|-|-3---|-|-| A|--4---|-|-4---|-|-3---|-|-3---|-|-|-1---|-|-1---|-|-1---|-|-1---|-|-| E|--4-------4-------3-------3-------|-1-------1-------1-------1-------| VoiceE|--------------------------------------------------------------------| H|--------------------------------------------------------------------| G|--8-----7-5----------5----7---5-----4--------4----5--7---------8--7-| D|-----------------------------------------5--------------5-----------| A|--------------------------------------------------------------------| E| dil s uma. V mo - yey du - she net bol'she mesta dlya te-| | | | Gtr. E|--4-------4-------4-------4-------|-3-------3-------3-------3-------| H|--4-------4-------4-------4-------|-3-------3-------3-------3-------| G|--5---|-|-5---|-|-5---|-|-5---|-|-|-4---|-|-4---|-|-4---|-|-4---|-|-| D|--6---|-|-6---|-|-6---|-|-6---|-|-|-5---|-|-5---|-|-5---|-|-5---|-|-| A|--6---|-|-6---|-|-6---|-|-6---|-|-|-5---|-|-5---|-|-5---|-|-5---|-|-| E|--4-------4-------4-------4-------|-3-------3-------3-------3-------| (2:18 - 2:47) CHORUS: ( Cm, D#, A# ) VoiceE|--------------------------------------------------------------------| H|-------------------------8------------------------------------------| G|--5----------5----7-8-----------------------8--8----8-----7----5-3--| D|--------------------------------------------------------------------| A|--------------------------------------------------------------------| E| bya. Ya svobo - den slovno pti - tza v nebe- | | | | Gtr. E|--3-------3-----3-3-3-3---3-3-3---|-6---6---6---6-6-6-6-6---6---6-6-| H|--4-------4-----4-4-4-4---4-4-4---|-8---8---8---8-8-6-6-6---6---6-6-| G|--5-------5-----5-5-5-5---5-5-5---|-8---8---8---8-8-7-7-7---7---7-7-| D|--5-------5-----5-5-5-5---5-5-5---|-8---8---8---8-8-8-8-8---8---8-8-| A|--3-------3-----3-3-3-3---3-3-3---|-6---6---6---6-6-8-8-8---8---8-8-| E|----------------------------------|-----------------6-6-6---6---6-6-| sah. Ya svobo - den, ya za - byl,chto znachit Gtr. E|--3-------3-----3-3-3-3---3-3-3---|-6---6---6---6-6-6-6-6---6---6-6-| H|--4-------4-----4-4-4-4---4-4-4---|-8---8---8---8-8-6-6-6---6---6-6-| G|--5-------5-----5-5-5-5---5-5-5---|-8---8---8---8-8-7-7-7---7---7-7-| D|--5-------5-----5-5-5-5---5-5-5---|-8---8---8---8-8-8-8-8---8---8-8-| A|--3-------3-----3-3-3-3---3-3-3---|-6---6---6---6-6-8-8-8---8---8-8-| E|----------------------------------|-----------------6-6-6---6---6-6-| strah. Ya svobo - den, s di - kim vet - rom narav- Gtr. E|--3-------3-----3-3-3-3---3-3-3---|-6---6---6---6-6-6-6-6---6---6-6-| H|--4-------4-----4-4-4-4---4-4-4---|-8---8---8---8-8-6-6-6---6---6-6-| G|--5-------5-----5-5-5-5---5-5-5---|-8---8---8---8-8-7-7-7---7---7-7-| D|--5-------5-----5-5-5-5---5-5-5---|-8---8---8---8-8-8-8-8---8---8-8-| A|--3-------3-----3-3-3-3---3-3-3---|-6---6---6---6-6-8-8-8---8---8-8-| E|----------------------------------|-----------------6-6-6---6---6-6-| ne. Ya svobo - den na - yavu, a ne vo Gtr. E|--3-------3-----3-3-3-3---3-3-3---|-6---6---6---6-6-6-6-6---6---6-6-| H|--4-------4-----4-4-4-4---4-4-4---|-8---8---8---8-8-6-6-6---6---6-6-| G|--5-------5-----5-5-5-5---5-5-5---|-8---8---8---8-8-7-7-7---7---7-7-| D|--5-------5-----5-5-5-5---5-5-5---|-8---8---8---8-8-8-8-8---8---8-8-| A|--3-------3-----3-3-3-3---3-3-3---|-6---6---6---6-6-8-8-8---8---8-8-| E|----------------------------------|-----------------6-6-6---6---6-6-| (2:47 - 3:00) POST-CHORUS: sne. Gtr. E|--3-------3-----3-3-3-3---3-3-3---|-6---6---6---6-6-6-6-6---6---6-6-| H|--4-------4-----4-4-4-4---4-4-4---|-8---8---8---8-8-6-6-6---6---6-6-| G|--5-------5-----5-5-5-5---5-5-5---|-8---8---8---8-8-7-7-7---7---7-7-| D|--5-------5-----5-5-5-5---5-5-5---|-8---8---8---8-8-8-8-8---8---8-8-| A|--3-------3-----3-3-3-3---3-3-3---|-6---6---6---6-6-8-8-8---8---8-8-| E|----------------------------------|-----------------6-6-6---6---6-6-| | | | SynthE|----------------------------------|---------------------------------| H|----------------------------------|-8---------------6---------------| G|--5-----------------------8-7-5---|-----------------------------8-7-| D|--------------------------------8-|---------------------------------| A|----------------------------------|---------------------------------| E|----------------------------------|---------------------------------| Gtr. E|--3-------3-----3-3-3-3---3-3-3---|-6---6---6-6-6-6-6---------------| H|--4-------4-----4-4-4-4---4-4-4---|-8---8---8-8-8-8-6---------------| G|--5-------5-----5-5-5-5---5-5-5---|-8---8---8-8-8-8-7---R-----------| D|--5-------5-----5-5-5-5---5-5-5---|-8---8---8-8-8-8-8---E-----------| A|--3-------3-----3-3-3-3---3-3-3---|-6---6---6-6-6-6-8---S-----------| E|----------------------------------|---------------------T-----------| | | | SynthE|----------------------------------|---------------------------------| H|----------------------------------|---------------------------------| G|--5-----------------------8-7-5---|-5-------3---5-------------------| D|--------------------------------8-|-----5-----------3---------------| A|----------------------------------|---------------------------------| E|----------------------------------|---------------------------------| (3:00 - 3:34) VERSE 3 (3:34 - 4:02) CHORUS (4:16 - 4:51) Keyboards solo (4:51 - 5:52) SOLO: LeadE|--------------------------------------------------|-------------11b13-11^-11bfr11p10------------------| H|--------------------------------------------------|-------------------------------11----------------| G|-10b12-------10b12-------10b12r10p8--8--10--8~~~~~|(8)~~~~---------------------------12-------------| D|--------------------------------------------------|-------------------------------------13--12------| A|--------------------------------------------------|---------------------------------------------13--| E|--------------------------------------------------|-------------------------------------------------| LeadE|--------------------------------------------------|-------------------------------------------------| H|--------------------------------------------------|---------------6-8----------------------------8--| G|--------------------------------------------------|-----------5-8-----8-7---7h8p7h8p7h8-------------| D|--------------------------------------------------|-------5-8-------------8-------------------------| A|-10-----------------------------------------------|-------------------------------------------------| E|--------------------------------------------------|-------------------------------------------------| LeadE|-11----10----8-h10p8----------------------------11bend13---11^-11^-11^-r11-10-------------------------| H|-------------------11b13r11b13-------11-13-11-----|-------------------------11~~~~~~~~~~~~----------| G|--------------------------------------------------|-- pick while --------------------------------10-| D|--------------------------------------------------|-- gradually ------------------------------------| A|--------------------------------------------------|-- releasing ------------------------------------| E|--------------------------------------------------|-------------------------------------------------| LeadE|--------------------------------------------------|-------------------------------------------------| H|--------------------------------------------------|-------------------------------------------------| G|-10\8-8------...----------------------------------|-------------------------------------------------| D|--------------------------------------------------|------------------------------------------/8--6--| A|--------------------------------------------------|-------------------------------------------------| E|--------------------------------------------------|-------------------------------------------------| LeadE|--------------------------------------------------|-------------------------------------------------| H|-----------------------------------------8--8--8--|-9-----8h9p8------------11b13-----------8--8--8--| G|----------------5-----7--8~~~~~~~~~---------------|-------------10----8-----------------------------| D|-5~~~~~-------------------------------------------|-------------------------------------------------| A|--------------------------------------------------|-------------------------------------------------| E|--------------------------------------------------|-------------------------------------------------| LeadE|-------11p10p8------------------------------------|-------------------------------------------------| H|-(8)----------11p9p8h9p11p9p8---------------------|-------------------------------------------------| G|------------------------------10p8-...------------|-------------------------------------------------| D|--------------------------------------------------|------------------------------------------/8--6--| A|--------------------------------------------------|-------------------------------------------------| E|--------------------------------------------------|-------------------------------------------------| LeadE|--------------------------------------------------|-------------------------------------------------| H|-----------------------------------------8--8--8--|-9-----8h9p8----------11b13-11^-11^-11^-11^-11^--| G|----------------5-----7--8~~~~~~~~~---------------|-------------10----8-----------------------------| D|-5~~~~~-------------------------------------------|-------------------------------------------------| A|--------------------------------------------------|-------------------------------------------------| E|--------------------------------------------------|-------------------------------------------------| LeadE|--------------------------------------------------|-------------------------------------------------| H|-11^r11-------11bfr11--11bfr11--11bfr11--11bfr11--|--8-11p8------------------------------------11---| G|--------------------------------------------------|---------10-----------------------10p8-10p8---10-| D|--------------------------------------------------|-------------------------------------------------| A|--------------------------------------------------|-------------------------------------------------| E|--------------------------------------------------|-------------------------------------------------| LeadE|--------------------------------------------------|-------------17-20p19p17------------------------------| H|----------------------8---------------------------|------------20------------------------------------| G|-10--8~~~~~~~~~~---------8------------------------|-12h14h16p14p12-/19-------------...---------------------| D|--------------------------------------------------|-------------------------------------------------| A|--------------------------------------------------|-------------------------------------------------| E|--------------------------------------------------|-------------------------------------------------|

найти лекарство
список лекарств






О сайтеАккордыХит-парадПоискУроки ФорумыИщу песню
ПрограммыСвежачок-сПодпискаСтатьи
Яндекс.Метрика