Аккорды Radiohead | Go To Sleep  (2) гитара табулатуры уроки тексты песен Radiohead текст lyrics песня аккорды песни ноты нота электрогитара струна  
   А Б В Г Д Е Ж З И К Л М Н О П Р С Т У Ф Х Ч Ш Ы Э Ю Я       Разные песни
1-9 A B C D E F G H I J K L M N O P Q R S T U V W Y Z      Все исполнители in english

    



группа Radiohead, Аккорды песни Go To Sleep (2)

Продолжаем грести бабос на ботах в Telegram.
Только в этот раз есть вариант автоматизировать это дело, привлекая рефералов. Вы можете заработать если »

Группа: Radiohead - другие аккорды (189),   о группе (6 статей),   диски (9),   фотографии (134)
Аккорды песни: Go To Sleep (2)
Просмотров: 650
Подобрал: Badtimes (indiespace@akkords.ru)




    
intro строй G. 
D-----0--------------------------------5-3-2--3---------------------5--
G-----0--------------------------------0-0--------------------------0--
G-----0----------3-----2-----5-----4-0-0-0------3-----2-----5-----4-0--
D-----0--------0-----0-----0-----0---0--------0-----0-----0-----0---0--
G--------0-2-3-----2-----5-----4-----0------3-----2-----5-----4-----0--
D-3/5-----------------------------------------------------------------
1st Verse
D----------------------------5-3-2--3------------------------5--
G----------------------------0-0-----------------------------0--
G------3-----2-----5-----4-0-0-0------3-----2-----5-----4-0--0--
D----0-----0-----0-----0---0--------0-----0-----0-----0---0--0--
G--3-----2-----5-----4-----0------3-----2-----5-----4-----0--0--
D--------------------------------------------------------------
drums kick in...
D-----------------------------5-------------------------------5--
G-----------------------------0-------------------------------0--
G------3-----2-----5-----4-0--0------8-----3------10-----5-0--0--
D----0-----0-----0-----0---0--0----0-----0------0------0---0--0--
G--3-----2-----5-----4-----0--0--8-----3-----10------5-----0--0--
D----------------------------------------------------------------
...go to sleep...
D--------------------------3--3----5--5----3--3----2--2--

Продолжаем грести бабос на ботах в Telegram.
Только в этот раз есть вариант автоматизировать это дело, привлекая рефералов. Вы можете заработать если »

G------3-----2-----5-----4-3--3----5--5----3--3----2--2-- G----0-----0-----0-----0---3--3----5--5----3--3----2--2-- D--3-----2-----5-----4-----3--3----5--5----3--3----2--2-- G--------------------------3--3----5--5----3--3----2--2-- D-------------------------------------------------------- breakdown D-------------------3-3-------------------3-3-------------------3-3---------5-5-- G--------0-0--------3-3--------0-0--------3-3--------0-0--------3-3--10--5--5-5-- G--------0-0--------3-3--------0-0--------3-3--------0-0--------3-3--10--5--5-5-- D--0--0--0-0--7--5-------0--0--0-0--7--5-------0--0--0-0--7--5-------10--5------- G--0--0-------3--3-------0--0-------3--3-------0--0-------3--3-------10--5------- D--3--5------------------3--5------------------3--5------------------------------ ...monster... D-------------------3-3---------5-5-- G--------0-0--------3-3--10--5--5-5-- G--------0-0--------3-3--10--5--5-5-- D--0--0--0-0--7--5-------10--5------- G--0--0-------3--3-------10--5------- D--3--5------------------------------ It goes on but all the parts are here to get you there. By listening to the song you should be able to work it out.

искать в аптеке
список лекарств






О сайтеАккордыХит-парадПоискУроки ФорумыИщу песню
ПрограммыСвежачок-сПодпискаСтатьи
Яндекс.Метрика