Аккорды Ария | Крещение Огнем  (2) гитара табулатуры уроки тексты песен Ария текст lyrics песня аккорды песни ноты нота электрогитара струна  
   А Б В Г Д Е Ж З И К Л М Н О П Р С Т У Ф Х Ч Ш Ы Э Ю Я       Разные песни
1-9 A B C D E F G H I J K L M N O P Q R S T U V W Y Z      Все исполнители in english

    



группа Ария, Аккорды песни Крещение Огнем (2)

Работа в Европе для граждан РФ, Украины, СНГ

  • минимальная зарплата $500.
  • виза и контракт на полгода, возможно продление
  • проживание оплачивает работодатель
  • нужен только загранпаспорт
  • оформление 190 €
  • данное предложение - отличная возможность эмигрировать в Европу и закрепиться здесь навсегда.

  • Мы свяжемся с Вами по WhatsApp или Viber и ответим на любые вопросы.
    на нашем сайте можно почитать подробнее »

    Группа: Ария - другие аккорды (629),   о группе (7 статей),   диски (18),   фотографии (92)
    Аккорды песни: Крещение Огнем (2)
    Просмотров: 3067
    Подобрал: Classic (yurik_bd@inbox.ru )




        
    Прислали:Classic & Mag.
    Tuning: half-step down (e to eb
                            H to Bb
                            G to Gb
                            D to Db
                            A to Ab
                            E to Eb)
    Tempo: slowly (87 bpm)
    (0:01 - 0:22)
    INTRO: (Gtr.1 - mandoline arranged for guitar (?))
    BassGb||-7--------7--------7--------7--------7-----------|-7--------7--------7--------7--------7-----------||
        Db||----0--0-----0--0-----0--0-----0--0-----0--0-----|----0--0-----0--0-----0--0-----0--0-----0--0-----||
        Ab||-------------------------------------------------|-------------------------------------------------||
        Eb||-------------------------------------------------|-------------------------------------------------||
     
    Gtr.1Eb||-10-10-10-8--8--8--10-10-10-8--8--8--12p10h12p10p8-8--|-10-10-10-8--8--8--10-10-10-8--8--8--10-10-8-----||
         Hb||-8--8--8--8--8--8--8--8--8--8--8--8--8--------8--|-8--8--8--8--8--8--8--8--8--8--8--8--8--8--8-----||
         Gb||-------------------------------------------------|-------------------------------------------------||
         Db||-------------------------------------------------|-------------------------------------------------||
         Ab||-------------------------------------------------|-------------------------------------------------||
         Eb||-------------------------------------------------|-------------------------------------------------||
           ||                                                 |                                                 ||
    Bass Gb||-7--------7--------7--------7--------7-----------|-7--------7--------7--------7--------7-----------||
         Db||----0--0-----0--0-----0--0-----0--0-----0--0-----|----0--0-----0--0-----0--0-----0--0-----0--0-----||
         Ab||-------------------------------------------------|-------------------------------------------------||
         Eb||-------------------------------------------------|-------------------------------------------------||
    (0:22 - 1:15)
    VERSE 1:
    VoiceEb|----------------------------------------------------------------------------------------------------|
         Hb|----------------------------------------------------------------------------------------------------|
         Gb|----------------------------------------------------------------------------------------------------|
         Db|---3-------2--------3-----5--------3--------2-------3--------2--------------------------------------|
         Ab|----------------------------------------------------------------------5-----5-----------------------|
         Eb| Drev  -  ni   -    e    ro  -  schi       pol  -  ny       go   -   lo  - sov,        -------------|
           |                                                  |                                                 |
    Gtr.1Eb|--10-10-10-8--8--8--10-10-10-8--8--8--10-12-10-8--|-10-10-10-8--8--8--10-10-10-8--8--8--12-10-8-----|
         Hb|--8--8--8--8--8--8--8--8--8--8--8--8--8--8--8--8--|-8--8--8--8--8--8--8--8--8--8--8--8--8--8--8-----|
         Gb|--------------------------------------------------|-------------------------------------------------|
         Db|--------------------------------------------------|-------------------------------------------------|
         Ab|--------------------------------------------------|-------------------------------------------------|
         Eb|--------------------------------------------------|-------------------------------------------------|
           |                                                  |                                                 |
    Bass Gb|--10-------9--------10----12-------10-------9-----|-10-------9--------7-----7--------7--------7-----|
         Db|-----0--0-----0--0-----0-----0--0-----0--0-----0--|----0--0-----0--0-----0-----0--0-----0--0-----0--|
         Ab|--------------------------------------------------|-------------------------------------------------|
         Eb|--------------------------------------------------|-------------------------------------------------|
     
    VoiceEb|----------------------------------------------------------------------------------------------------|
         Hb|----------------------------------------------------------------------------------------------------|
         Gb|----------------------------------------------------------------------------------------------------|
         Db|----------------------------------------------------------------------------------------------------|
         Ab|---3-------3--------3-----1--------1--------3-------5-----------------------------------------------|
         Eb| she   -  po    -  ta   trav       i       kam  -  ney.                 ----------------------------|
           |                                                  |                                                 |
    Gtr.1Eb|--10-10-10-8--8--8--10-10-10-8--8--8--10-12-10-8--|-10-10-10-8--8--8--10-10-10-8--8--8--12-10-8-----|
         Hb|--8--8--8--8--8--8--8--8--8--8--8--8--8--8--8--8--|-8--8--8--8--8--8--8--8--8--8--8--8--8--8--8-----|
         Gb|--------------------------------------------------|-------------------------------------------------|
         Db|--------------------------------------------------|-------------------------------------------------|
         Ab|--------------------------------------------------|-------------------------------------------------|
         Eb|--------------------------------------------------|-------------------------------------------------|
           |                                                  |                                                 |
    Bass Gb|--5--------5--------5-----3--------3--------5-----|-7--------7--------7--------7--------7-----------|
         Db|-----0--0-----0--0-----0-----0--0-----0--0-----0--|----0--0-----0--0-----0--0-----0--0-----0--0-----|
         Ab|--------------------------------------------------|-------------------------------------------------|
         Eb|--------------------------------------------------|-------------------------------------------------|
     
    VoiceEb|----------------------------------------------------------------------------------------------------|
         Hb|----------------------------------------------------------------------------------------------------|
         Gb|----------------------------------------------------------------------------------------------------|
         Db|----3------2--------3-----5--------3--------2-------3--------2--------------------------------------|
         Ab|----------------------------------------------------------------------5-----5-----------------------|
         Eb| K se  -  ve   -   ru   tya   -   net  -  sya      dym      ot       kost -rov,        -------------|
           |                                                  |                                                 |
    Gtr.1Eb|--10-10-10-8--8--8--10-10-10-8--8--8--10-12-10-8--|-10-10-10-8--8--8--10-10-10-8--8--8--12-10-8-----|
         Hb|--8--8--8--8--8--8--8--8--8--8--8--8--8--8--8--8--|-8--8--8--8--8--8--8--8--8--8--8--8--8--8--8-----|
         Gb|--------------------------------------------------|-------------------------------------------------|
         Db|--------------------------------------------------|-------------------------------------------------|
         Ab|--------------------------------------------------|-------------------------------------------------|
         Eb|--------------------------------------------------|-------------------------------------------------|
           |                                                  |                                                 |
    Bass Gb|--10-------9--------10----12-------10-------9-----|-10-------9--------7-----7--------7--------7-----|
         Db|-----0--0-----0--0-----0-----0--0-----0--0-----0--|----0--0-----0--0-----0-----0--0-----0--0-----0--|
         Ab|--------------------------------------------------|-------------------------------------------------|
         Eb|--------------------------------------------------|-------------------------------------------------|
     
    VoiceEb|----------------------------------------------------------------------------------------------------|
         Hb|----------------------------------------------------------------------------------------------------|
         Gb|----------------------------------------------------------------------------------------------------|
         Db|--------------------------------------------3-------------------------------------------------------|
         Ab|---3-------3--------3-----1--------1----------------5-----------------------------------------------|
         Eb| vrag     ry  -  schet v toy     sto   -   ro   -  ne.                  ----------------------------|
           |                                                  |                                                 |
    Gtr.1Eb|--10-10-10-8--8--8--10-10-10-8--8--8--10-12-10-8--|-10-10-10-8--8--8--10-10-10-8--8--8--12-10-8-----|
         Hb|--8--8--8--8--8--8--8--8--8--8--8--8--8--8--8--8--|-8--8--8--8--8--8--8--8--8--8--8--8--8--8--8-----|
         Gb|--------------------------------------------------|-------------------------------------------------|
         Db|--------------------------------------------------|-------------------------------------------------|
         Ab|--------------------------------------------------|-------------------------------------------------|
         Eb|--------------------------------------------------|-------------------------------------------------|
           |                                                  |                                                 |
    Bass Gb|--5--------5--------5-----3--------3--------5-----|-7--------7--------7--------7--------7-----------|
         Db|-----0--0-----0--0-----0-----0--0-----0--0-----0--|----0--0-----0--0-----0--0-----0--0-----0--0-----|
         Ab|--------------------------------------------------|-------------------------------------------------|
         Eb|--------------------------------------------------|-------------------------------------------------|
     
    VoiceEb|----------------------------------------------------------------------------------------------------|
         Hb|----------------------------------------------------------------------------------------------------|
         Gb|----------------------------------------------------------------------------------------------------|
         Db|---7-------7--------7-----6-------------------------3--------2--------3-----------------------2-----|
         Ab|----------------------------------------------------------------------------5-----------------------|
         Eb|- Du   -  hi      gro  - zy                       byut    v ba   -   ra  - ban,               iz   -|
           |                                                  |                                                 |
    Gtr.1Eb|--10-10-10-8--8--8--10-10-10-12-12-12-13-13-13----|-13-13-13-12-12-12-13p10-8--10-10-8--10-10-10-8--|
         Hb|--8--8--8--8--8--8--8--8--8--8--8--8--8--8--8-----|-8--8--8--8--8--8--8-----8--8--8--8--8--8--8--8--|
         Gb|--------------------------------------------------|-------------------------------------------------|
         Db|--------------------------------------------------|-------------------------------------------------|
         Ab|--------------------------------------------------|-------------------------------------------------|
         Eb|--------------------------------------------------|-------------------------------------------------|
           |                                                  |                                                 |
    Bass Gb|--14-------14-------14----13-------13-------13----|-10-------9--------10----7--------7--------7-----|
         Db|-----0--0-----0--0-----0-----0--0-----0--0-----0--|----0--0-----0--0-----0-----0--0-----0--0-----0--|
         Ab|--------------------------------------------------|-------------------------------------------------|
         Eb|--------------------------------------------------|-------------------------------------------------|
     
    VoiceEb|----------------------------------------------------------------------------------------------------|
         Hb|----------------------------------------------------------------------------------------------------|
         Gb|----------------------------------------------------------------------------------------------------|
         Db|---3-------2--------3-----5--------3--------2-------3-----------------------------------------------|
         Ab|----------------------------------------------------------------------------------------------------|
         Eb| mol   -  niy      ku  - yut      nam      me  -  chi.                  ----------------------------|
           |                                                  |                                                 |
    Gtr.1Eb|--10-10-10-8--8--8--10-10-10-8--8--8--10-12-10-8--|-10-10-10-8--8--8--10-10-10-8--8--8--12p10h12p10p8-8--|
         Hb|--8--8--8--8--8--8--8--8--8--8--8--8--8--8--8--8--|-8--8--8--8--8--8--8--8--8--8--8--8--8--------8--|
         Gb|--------------------------------------------------|-------------------------------------------------|
         Db|--------------------------------------------------|-------------------------------------------------|
         Ab|--------------------------------------------------|-------------------------------------------------|
         Eb|--------------------------------------------------|-------------------------------------------------|
           |                                                  |                                                 |
    Bass Gb|--10-------9--------10----12-------10-------9-----|-7--------7--------7--------7--------7-----------|
         Db|-----0--0-----0--0-----0-----0--0-----0--0-----0--|----0--0-----0--0-----0--0-----0--0-----0--0-----|
         Ab|--------------------------------------------------|-------------------------------------------------|
         Eb|--------------------------------------------------|-------------------------------------------------|
     
    VoiceEb|----------------------------------------------------------------------------------------------------|
         Hb|----------------------------------------------------------------------------------------------------|
         Gb|----------------------------------------------------------------------------------------------------|
         Db|--7--------7--------7-----6-------------------------3--------2--------3-----------------------------|
         Ab|----------------------------------------------------------------------------5-----------------------|
         Eb| My      pri   -   ne  - sem                      zhert  -  vu       bo  - gam,        -------------|
           |                                                  |                                                 |
    Gtr.1Eb|--10-10-10-8--8--8--10-10-10-12-12-12-13-13-13----|-13-13-13-12-12-12-13p10-8--10-10-8--10-10-10-8--|
         Hb|--8--8--8--8--8--8--8--8--8--8--8--8--8--8--8-----|-8--8--8--8--8--8--8-----8--8--8--8--8--8--8--8--|
         Gb|--------------------------------------------------|-------------------------------------------------|
         Db|--------------------------------------------------|-------------------------------------------------|
         Ab|--------------------------------------------------|-------------------------------------------------|
         Eb|--------------------------------------------------|-------------------------------------------------|
           |                                                  |                                                 |
    Bass Gb|--14-------14-------14----13-------13-------13----|-10-------9--------10----7--------7--------7-----|
         Db|-----0--0-----0--0-----0-----0--0-----0--0-----0--|----0--0-----0--0-----0-----0--0-----0--0-----0--|
         Ab|--------------------------------------------------|-------------------------------------------------|
         Eb|--------------------------------------------------|-------------------------------------------------|
     
    VoiceEb|----------------------------------------------------------------------------------------------------|
         Hb|----------------------------------------------------------------------------------------------------|
         Gb|----------------------------------------------------------------------------------------------------|
         Db|---3-------2--------3-----5--------3--------2-------------------------------------------------------|
         Ab|----------------------------------------------------5-----------------------------------------------|
         Eb| krov\' -  yu      svo  -  ey      na    -  po   -   im.                 ----------------------------|
           |                                                  |                                                 |
    Gtr.1Eb|--10-10-10-8--8--8--10-10-10-8--8--8--10-12-10-8--|-10-10-10-8--8--8--10-10-10-8--8--8--12p10h12p10p8-8--|
         Hb|--8--8--8--8--8--8--8--8--8--8--8--8--8--8--8--8--|-8--8--8--8--8--8--8--8--8--8--8--8--8--------8--|
         Gb|--------------------------------------------------|-------------------------------------------------|
         Db|--------------------------------------------------|-------------------------------------------------|
         Ab|--------------------------------------------------|-------------------------------------------------|
         Eb|--------------------------------------------------|-------------------------------------------------|
           |                                                  |                                                 |
    Bass Gb|--10-------9--------10----12-------10-------9-----|-7--------7--------7--------7--------7-----------|
         Db|-----0--0-----0--0-----0-----0--0-----0--0-----0--|----0--0-----0--0-----0--0-----0--0-----0--0-----|
         Ab|--------------------------------------------------|-------------------------------------------------|
         Eb|--------------------------------------------------|-------------------------------------------------|
     
    Gtr.1Eb|-10-10-10-8--8--8--10-10-10-8--8--8--10-10-8--8--|-10-10-10-8--8--8--10-10-10-8--8--8--12p10h12p10p8-8--|-10----|
         Hb|-8--8--8--8--8--8--8--8--8--8--8--8--8--8--8--8--|-8--8--8--8--8--8--8--8--8--8--8--8--8--------8--|-8-----|
         Gb|-------------------------------------------------|-------------------------------------------------|-------|
         Db|-------------------------------------------------|-------------------------------------------------|-------|
         Ab|-------------------------------------------------|-------------------------------------------------|-------|
         Eb|-------------------------------------------------|-------------------------------------------------|-------|
           |                                                 |                                                 |       |
    Bass Gb|-7--------7--------7--------7--------7-----------|-7--------7--------7--------7--------7-----------|-7-----|
         Db|----0--0-----0--0-----0--0-----0--0-----0--0-----|----0--0-----0--0-----0--0-----0--0-----0--0-----|-------|
         Ab|-------------------------------------------------|-------------------------------------------------|-------|
         Eb|-------------------------------------------------|-------------------------------------------------|-------|
    Tempo: faster (110 bpm)
    (1:16 - 1:50)
    VERSE 2:
    VoiceEb|------------------5-------------------------------------------------|
         Hb|---8----7----8----------8-----7-----8-----7-----5---5---------------|
         Gb|--------------------------------------------------------------------|
         Db|--------------------------------------------------------------------|
         Ab|--------------------------------------------------------------------|
         Eb| Pro - tiv  nas blesk  Vi -  zan - tiy -skih  tzerkvey           ---|
           |                                  |                                 |
    Gtr.2Eb|----------------------------------|---------------------------------|
      +  Hb|----------------------------------|---------------------------------|
    Gtr.3Gb|------------------R---------------|-----------------R---------------|
         Db|--2---2-2---2-2---E---2-2---2-2---|-2---2-2---2-2---E---2-2---2-2---|
         Ab|--2---2-2---2-2---S---2-2---2-2---|-2---2-2---2-2---S---2-2---2-2---|
         Eb|--0---0-0---0-0---T---0-0---0-0---|-0---0-0---0-0---T---0-0---0-0---|
     
    VoiceEb|--------------------------------------------------------------------|
         Hb|------------------------------7-----5-------------------------------|
         Gb|--7-----7-----7---5-----5-------------------------------------------|
         Db|--------------------------------------------------------------------|
         Ab|--------------------------------------------------------------------|
         Eb| pysh -nost\' pi -rov    i    da  - rov.        ---------------------|
           |                                  |                                 |
    Gtr.2Eb|----------------------------------|---------------------------------|
      +  Hb|----------------------------------|---------------------------------|
    Gtr.3Gb|--7---------------5---------------|-R---------------R---------------|
         Db|--7---------------5---------------|-E---2-2---2-2---E---2-2---2-2---|
         Ab|--5---------------3---------------|-S---2-2---2-2---S---2-2---2-2---|
         Eb|----------------------------------|-T---0-0---0-0---T---0-0---0-0---|
     
    VoiceEb|------------------5-------------------------------------------------|
         Hb|--8-----7-----8---------8-----7-----8-----7-----5---5---------------|
         Gb|--------------------------------------------------------------------|
         Db|--------------------------------------------------------------------|
         Ab|--------------------------------------------------------------------|
         Eb| My   pre  - da - em  smer - ti    na - shih   de - tey,         ---|
           |                                  |                                 |
    Gtr.2Eb|----------------------------------|---------------------------------|
      +  Hb|----------------------------------|---------------------------------|
    Gtr.3Gb|------------------R---------------|-----------------R---------------|
         Db|--2---2-2---2-2---E---2-2---2-2---|-2---2-2---2-2---E---2-2---2-2---|
         Ab|--2---2-2---2-2---S---2-2---2-2---|-2---2-2---2-2---S---2-2---2-2---|
         Eb|--0---0-0---0-0---T---0-0---0-0---|-0---0-0---0-0---T---0-0---0-0---|
     
    VoiceEb|--------------------------------------------------------------------|
         Hb|-------------------------------7----5-------------------------------|
         Gb|---7----7-----7---5-----5-------------------------------------------|
         Db|--------------------------------------------------------------------|
         Ab|--------------------------------------------------------------------|
         Eb| zna - ya   zhesto  -  kost\' vra - gov.        ---------------------|
           |                                  |                                 |
    Gtr.2Eb|----------------------------------|---------------------------------|
      +  Hb|----------------------------------|---------------------------------|
    Gtr.3Gb|--7---------------5---------------|-R---------------R---------------|
         Db|--7---------------5---------------|-E---2-2---2-2---E---2-2---2-2---|
         Ab|--5---------------3---------------|-S---2-2---2-2---S---2-2---2-2---|
         Eb|----------------------------------|-T---0-0---0-0---T---0-0---0-0---|
     
    VoiceEb|---7----7----7----6-------------------------------------------------|
         Hb|------------------------------8-----8-----7-----8---5---------------|
         Gb|--------------------------------------------------------------------|
         Db|--------------------------------------------------------------------|
         Ab|--------------------------------------------------------------------|
         Eb| Zna - ki   Lu - ny         gro - zyat   nam   be -doy       -------|
           |                                  |                                 |
    Gtr.2Eb|----------------------------------|---------------------------------|
      +  Hb|----------------------------------|---------------------------------|
    Gtr.3Gb|------------------R---------------|-R---------------R---------------|
         Db|--2---2-2---2-2---E---4-4---4-4---|-E---7-7---7-7---E---2-2---2-2---|
         Ab|--2---2-2---2-2---S---4-4---4-4---|-S---7-7---7-7---S---2-2---2-2---|
         Eb|--0---0-0---0-0---T---2-2---2-2---|-T---5-5---5-5---T---0-0---0-0---|
     
    VoiceEb|------------------5-------------------------------------------------|
         Hb|---8-----7----8---------8-----7-----8-------------------------------|
         Gb|--------------------------------------------------------------------|
         Db|--------------------------------------------------------------------|
         Ab|--------------------------------------------------------------------|
         Eb| stre - ly   po -yut    ob    od - nom.        ---------------------|
           |                                  |                                 |
    Gtr.2Eb|----------------------------------|---------------------------------|
      +  Hb|----------------------------------|---------------------------------|
    Gtr.3Gb|--9---------------7---------------|-5-------------------------------|
         Db|--9---------------7---------------|-5-------------------------------|
         Ab|--7---------------5---------------|-3---------------5-----4-----5---|
         Eb|----------------------------------|-----------------3-----2-----3---|
     
    VoiceEb|--7-----7----7----6-------------------------------------------------|
         Hb|------------------------------8-----8-----7-----8---5---------------|
         Gb|--------------------------------------------------------------------|
         Db|--------------------------------------------------------------------|
         Ab|--------------------------------------------------------------------|
         Eb| Vy  - bor  zhestok,        kre -sche - n\'e    vo -doy     ---------|
           |                                  |                                 |
    Gtr.2Eb|----------------------------------|---------------------------------|
      +  Hb|----------------------------------|---------------------------------|
    Gtr.3Gb|------------------R---------------|-R---------------R---------------|
         Db|--2---2-2---2-2---E---4-4---4-4---|-E---7-7---7-7---E---2-2---2-2---|
         Ab|--2---2-2---2-2---S---4-4---4-4---|-S---7-7---7-7---S---2-2---2-2---|
         Eb|--0---0-0---0-0---T---2-2---2-2---|-T---5-5---5-5---T---0-0---0-0---|
     
    VoiceEb|------------------5-----------------5-------------------------------|
         Hb|---8-----7----8---------8-----7-------------------------------------|
         Gb|--------------------------------------------------------------------|
         Db|--------------------------------------------------------------------|
         Ab|--------------------------------------------------------------------|
         Eb|- i  -  li  kresche - n\'e     og - nem     -------------------------|
           |                                  |                                 |
    Gtr.2Eb|----------------------------------|---------------------------------|
      +  Hb|----------------------------------|---------------------------------|
    Gtr.3Gb|--9---------------7---------------|---------------------------------|
         Db|--9---------------7---------------|-7-------------------------------|
         Ab|--7---------------5---------------|-7---------------7-----5-----7---|
         Eb|----------------------------------|-5---------------5-----3-----5---|
    (1:51 - 2:26)
    CHORUS: (gtr.3 plays chords above the tab)
    
    Узнай ВСЕ о своем друге в ВК или FB
    VoiceEb|----------5---3-----------------------------5---3-------------------| Hb|----------------------6---5---3-------------------------6---5---3---| Gb|--------------------------------------------------------------------| Db|--------------------------------------------------------------------| Ab|--------------------------------------------------------------------| Eb|-------- Wo - o - o - o - o, wo - o - o - o - o -| | | | Gtr.2Eb|--D5------------------------------|-Bb5-----------------------------| Hb|----------------------------------|---------------------------------| Gb|--7-7-7-7-7-7-7-7-7-7-7-7-7-7-7-7-|-7-7-7-7-7-7-7-7-7-7-7-7-7-7-7-7-| Db|--7-7-7-7-7-7-7-7-7-7-7-7-7-7-7-7-|-7-7-7-7-7-7-7-7-7-7-7-7-7-7-7-7-| Ab|----------------------------------|---------------------------------| Eb|----------------------------------|---------------------------------| VoiceEb|----------5---3-----------------------------------------------------| Hb|----------------------6---5---3-------------------------------------| Gb|--------------------------------------------------------------------| Db|--------------------------------------------------------------------| Ab|--------------------------------------------------------------------| Eb|-- kresche - n\'ye og -nem. ------------| | | | Gtr.2Eb|--C5------------------------------|-D5----------5-------------------| Hb|----------------------------------|-------------6-------------------| Gb|--5-5-5-5-5-5-5-5-5-5-5-5-5-5-5-5-|-7-7-7-7-7-7-7-------------------| Db|--5-5-5-5-5-5-5-5-5-5-5-5-5-5-5-5-|-7-7-7-7-7-7-7-------------------| Ab|----------------------------------|---------------------------------| Eb|----------------------------------|---------------------------------| VoiceEb|----------5---3-----------------------------5---3-------------------| Hb|----------------------6---5---3-------------------------6---5---3---| Gb|--------------------------------------------------------------------| Db|--------------------------------------------------------------------| Ab|--------------------------------------------------------------------| Eb|-------- Wo - o - o - o - o, wo - o - o - o - o -| | | | Gtr.2Eb|--D5------------------------------|-Bb5-----------------------------| Hb|----------------------------------|---------------------------------| Gb|--7-7-7-7-7-7-7-7-7-7-7-7-7-7-7-7-|-7-7-7-7-7-7-7-7-7-7-7-7-7-7-7-7-| Db|--7-7-7-7-7-7-7-7-7-7-7-7-7-7-7-7-|-7-7-7-7-7-7-7-7-7-7-7-7-7-7-7-7-| Ab|----------------------------------|---------------------------------| Eb|----------------------------------|---------------------------------| VoiceEb|----------5---3-----------------------------------------------------| Hb|----------------------6---5---3-------------------------------------| Gb|--------------------------------------------------------------------| Db|--------------------------------------------------------------------| Ab|--------------------------------------------------------------------| Eb|-- kresche - n\'ye og -nem. ------------| | | | Gtr.2Eb|--C5------------------------------|-G5------------------------------| Hb|----------------------------------|-------------3-------------------| Gb|--5-5-5-5-5-5-5-5-5-5-5-5-5-5-5-5-|-0-0-0-0-0-0-0-------------------| Db|--5-5-5-5-5-5-5-5-5-5-5-5-5-5-5-5-|-0-0-0-0-0-0-0-------------------| Ab|----------------------------------|---------------------------------| Eb|----------------------------------|---------------------------------| VoiceEb|----------7---5-----------------------------7---5-------------------| Hb|----------------------8---7---5-------------------------8---7---5---| Gb|--------------------------------------------------------------------| Db|--------------------------------------------------------------------| Ab|--------------------------------------------------------------------| Eb|-------- Wo - o - o - o - o, wo - o - o - o - o -| | | | Gtr.2Eb|--E5------------------------------|-C5------------------------------| Hb|----------------------------------|---------------------------------| Gb|--9-9-9-9-9-9-9-9-9-9-9-9-9-9-9-9-|-9-9-9-9-9-9-9-9-9-9-9-9-9-9-9-9-| Db|--9-9-9-9-9-9-9-9-9-9-9-9-9-9-9-9-|-9-9-9-9-9-9-9-9-9-9-9-9-9-9-9-9-| Ab|----------------------------------|---------------------------------| Eb|----------------------------------|---------------------------------| VoiceEb|----------7---5-----------------------------------------------------| Hb|----------------------8---7---5-------------------------------------| Gb|--------------------------------------------------------------------| Db|--------------------------------------------------------------------| Ab|--------------------------------------------------------------------| Eb|-- kresche - n\'ye og -nem. ------------| | | | Gtr.2Eb|--D5------------------------------|-E5------------------------------| Hb|----------------------------------|---------------------------------| Gb|--9-9-9-9-9-9-9-9-9-9-9-9-9-9-9-9-|-9-9-9-9-9-9-9-9-9-9-9-9-9-9-9-9-| Db|--9-9-9-9-9-9-9-9-9-9-9-9-9-9-9-9-|-9-9-9-9-9-9-9-9-9-9-9-9-9-9-9-9-| Ab|----------------------------------|---------------------------------| Eb|----------------------------------|---------------------------------| VoiceEb|----------7---5-----------------------------7---5-------------------| Hb|----------------------8---7---5-------------------------8---7---5---| Gb|--------------------------------------------------------------------| Db|--------------------------------------------------------------------| Ab|--------------------------------------------------------------------| Eb|-------- Wo - o - o - o - o, wo - o - o - o - o -| | | | Gtr.2Eb|--E5------------------------------|-C5------------------------------| Hb|----------------------------------|---------------------------------| Gb|--9-9-9-9-9-9-9-9-9-9-9-9-9-9-9-9-|-9-9-9-9-9-9-9-9-9-9-9-9-9-9-9-9-| Db|--9-9-9-9-9-9-9-9-9-9-9-9-9-9-9-9-|-9-9-9-9-9-9-9-9-9-9-9-9-9-9-9-9-| Ab|----------------------------------|---------------------------------| Eb|----------------------------------|---------------------------------| VoiceEb|----------7---5---------------5-------------------------------------| Hb|----------------------8---7-----------------------------------------| Gb|--------------------------------------------------------------------| Db|--------------------------------------------------------------------| Ab|--------------------------------------------------------------------| Eb|-- kresche - n\'ye og -nem. ------------| | | | Gtr.2Eb|--D5------------------------------|-A5------------------------------| Hb|----------------------------------|---------------------------------| Gb|--9-9-9-9-9-9-9-9-9-9-9-9-9-9-9-9-|-2-------------------------------| Db|--9-9-9-9-9-9-9-9-9-9-9-9-9-9-9-9-|-2-------------------------------| Ab|----------------------------------|-0-------------------------------| Eb|----------------------------------|---------------------------------| (2:26 - 3:01) VERSE 3 (like verse 2) (3:01 - 3:35) CHORUS (without the last measure) (3:35 - 3:39) RIFF 1: Gtr.2Eb|----------------------------------|---------------------------------| + Hb|----------------------------------|---------------------------------| Gtr.3Gb|----------------------------------|---------------------------------| Db|----------------------------------|---------------------------------| Ab|--3p0-0-3p0-0-3p0-0-3p0-0-3p0-0-0-|-3p0-0-3p0-0-3p0-0-3p0-0-3p0-0-0-| Eb|----------------------------------|---------------------------------| SOLO: (3:40 - 3:57) PART A: (Popov\'s lead) (rhythm guitar plays chords indicated) E5 Gtr.4Eb|--12~~~~~~~~~~~~~~~~~~~---------------------------|-------------------------------------------------| Hb|--------------------------7--------8--------------|-------------------------------------------------| Gb|--------------------------------------------8-----|-9~~~~~~~----------------------------------------| Db|--------------------------------------------------|----------8--------9-----------------------------| Ab|--------------------------------------------------|-------------------------9--------10-------6-----| Eb|--------------------------------------------------|-------------------------------------------------| D5 C5 E5 Gtr.4Eb|--------------------------------------------------|-------------------------------------------------| Hb|--------------------------------------------------|-------------------------------3-p0--------5-p0--| Gb|--------------------------------------------12b14rel12~~~~~~~~~~~~~~~~~\\----3-h4--------2-p0--------| Db|-----------9-----------------------9--------------|-------------------------------------------------| Ab|--7-----------------6-----7-----------------------|-------------------------------------------------| Eb|--------------------------------------------------|-------------------------------------------------| E5 Gtr.4Eb|--------10----10--------7-10p7------7-10p7--------|-------10----10--------7-10p7------7-10p7--------| Hb|--0h7h8-8-----8-----7h8-------8-7h8-------8-7h8p7-|-7-h8--8-----8-----7h8-------8-7h8-------8-7--8--| Gb|--------------------------------------------------|-------------------------------------------------| Db|--------------------------------------------------|-------------------------------------------------| Ab|--------------------------------------------------|-------------------------------------------------| Eb|--------------------------------------------------|-------------------------------------------------| D5 C5 E5 T T T T Gtr.4Eb|-12p10p7----------------------------------------------------------|----------------------------------------12p7p10--| Hb|---------12p10-12p10p7p0--T-----T---------------------------------|----------------------T------------7/10----------| Gb|-------------------------12p<7>-12p7p4---T----T-------------------|--------------T-------12p0h4h7-7p4---------------| Db|---------------------------------------7-12p7-12p7p4p0---T--------|------T-------12p0h4h7---------------------------| Ab|-------------------------------------------------------2-12p5p2p0-|------12p0p2h5-----------------------------------| Eb|------------------------------------------------------------------|-0h2h5-------------------------------------------| (3:57 - 4:14) PART B: (Holstinin\'s lead) (w/wah pedal) Gtr.4Eb|-12b14--------\\-----------------------------------|-------------------------------------------------| Hb|--------------------------------------------------|-------------------------------------------------| Gb|--------------------------------------------------|-------------------------------------------------| Db|--------------------------------------------------|-------------------------------------------------| Ab|--------------------------------------------------|-------------------------------------------------| Eb|--------------------------------------------------|-------------------------------------------------| | | | Gtr.5Eb|--------------------------------------------------|-------------------------------------------------| Hb|--------------------------------------9h10p9------|-------------------------------------------------| Gb|-------11bend14-----------------------------11-9--|-------------------------------------------------| Db|--------------------------------------------------|-11----------\\\\\\\\\\\\\\ w/tremolo bar -------------| Ab|--------------------------------------------------|-------------------------------------------------| Eb|--------------------------------------------------|-------------------------------------------------| | | | Gtr.2Eb|--------------------------------------------------|-------------------------------------------------| + Hb|--------------------------------------------------|-------------------------------------------------| Gtr.3Gb|--------------------------------------------------|-------------------------------------------------| Db|--------------------------------------------------|-------------------------------------------------| Ab|--------------------------4--------4--------4-----|-------------------------4--------4--------4-----| Eb|--2--2--2--2--2--2--2--2-----2--2-----2--2-----2--|-2--2--2--2--2--2--2--2-----2--2-----2--2-----2--| Gtr.5Eb|--10p9p7----7----------------10p9p7---7--------------|-------------------------------------------------| Hb|---------10---10p9-9p7-9-----------10---10--9--7-----|-------------------------------------------------| Gb|-----------------------------------------------9--|-6-9p7p6---6-------------------------------------| Db|--------------------------------------------------|---------9---7--9--6--7--6---\\\\\\\\ w/tremolo bar -| Ab|--------------------------------------------------|-------------------------------------------------| Eb|--------------------------------------------------|-------------------------------------------------| | | | Gtr.2Eb|--------------------------------------------------|-------------------------------------------------| + Hb|--------------------------------------------------|-------------------------------------------------| Gtr.3Gb|--------------------------------------------------|-------------------------------------------------| Db|--------------------------------------------------|-------------------------------------------------| Ab|--------------------------4--------4--------4-----|-------------------------4--------4--------4-----| Eb|--2--2--2--2--2--2--2--2-----2--2-----2--2-----2--|-2--2--2--2--2--2--2--2-----2--2-----2--2-----2--| Gtr.5Eb|--------------------------------------------------|-------------------12-14-12h14p12---------------------------| Hb|-----------------------------------------7--9--9--|/10-12-10-12-14-15----------------15p14-12------------------| Gb|--------------------------------------6-----------|------------------------------------------14p11-11h14-13-16-| Db|--------------------------4h6h7-------------------|-------------------------------------------------| Ab|--9-p7-h9p7h9p7h9p7h9p7\\--------4-----------------|-------------------------------------------------| Eb|--------------------------------------------------|-------------------------------------------------| | | | Gtr.2Eb|--------------------------------------------------|-------------------------------------------------| + Hb|--------------------------------------------------|-------------------------------------------------| Gtr.3Gb|--------------------------------------------------|-------------------------------------------------| Db|--------------------------------------------------|-------------------------------------------------| Ab|--------------------------4--------4--------4-----|-------------------------4--------4--------4-----| Eb|--2--2--2--2--2--2--2--2-----2--2-----2--2-----2--|-2--2--2--2--2--2--2--2-----2--2-----2--2-----2--| Gtr.5Eb|--------------------------------------------------|-------------------------------------------------| Hb|--------------------------------------------------|-------------------------------------------------| Gb|--16b18~~~~~~~~~~~~r16p14-11-14-11----------------|-------------------------------------------------| Db|--------------------------------11----------------|-11-------11-------11----11--\\\\\\\\ w/tremolo bar -| Ab|--------------------------------------------------|-------------------------------------------------| Eb|--------------------------------------------------|-------------------------------------------------| | | | Gtr.2Eb|--------------------------------------------------|-------------------------------------------------| + Hb|--------------------------------------------------|-------------------------------------------------| Gtr.3Gb|--------------------------------------------------|-------------------------------------------------| Db|--------------------------------------------------|-------------------------------------------------| Ab|--------------------------4--------4--------4-----|-------------------------4--------4--------4-----| Eb|--2--2--2--2--2--2--2--2-----2--2-----2--2-----2--|-2--2--2--2--2--2--2--2-----2--2-----2--2-----2--| (4:14 - 4:49) RIFF 2: Gtr.2Eb|----------------------------------|---------------------------------| Gtr.3Hb|----------------------------------|---------------------------------| Gb|------------------------------2---|-4---------------5-----4---------| Db|--5---------------------------4---|-5---------------7-----5----5----| Ab|--7-------------------------------|----------------------------7----| Eb|----------------------------------|---------------------------------| Gtr.2Eb|----------------------------------|---------------------------------| Gtr.3Hb|----------------------------------|---------------------------------| Gb|--2---------------2---------------|---------------------------------| Db|--4---------------4-----5-----4---|-2---------------4---------------| Ab|------------------------7-----5---|-3---------------5---------------| Eb|----------------------------------|---------------------------------| Gtr.2Eb|----------------------------------|---------------------------------| Gtr.3Hb|----------------------------------|---------------------------------| Gb|------------------------------2---|-4---------------5-----4---------| Db|--5---------------------------4---|-5---------------7-----5----5----| Ab|--7-------------------------------|----------------------------7----| Eb|----------------------------------|---------------------------------| Gtr.2Eb|----------------------------------|---------------------------------| Gtr.3Hb|----------------------------------|---------------------------------| Gb|--2---------------2---------------|---------------------------------| Db|--4---------------4-----5-----4---|-7-------------------------------| Ab|------------------------7-----5---|-7-------------------------------| Eb|----------------------------------|---------------------------------| Gtr.2Eb|----------------------------------|---------------------------------| Gtr.3Hb|----------------------------------|---------------------------------| Gb|------------------------------5---|-7---------------9-----7---------| Db|--9---------------------------7---|-9---------------10----9----9----| Ab|--10------------------------------|----------------------------10---| Eb|----------------------------------|---------------------------------| Gtr.2Eb|----------------------------------|---------------------------------| Gtr.3Hb|----------------------------------|---------------------------------| Gb|--5---------------5---------------|---------------------------------| Db|--7---------------7-----9-----7---|-5---------------7---------------| Ab|------------------------10----9---|-7---------------9---------------| Eb|----------------------------------|---------------------------------| Gtr.2Eb|----------------------------------|---------------------------------| Gtr.3Hb|----------------------------------|---------------------------------| Gb|------------------------------5---|-7---------------9-----7---------| Db|--9---------------------------7---|-9---------------10----9----9----| Ab|--10------------------------------|----------------------------10---| Eb|----------------------------------|---------------------------------| Gtr.2Eb|----------------------------------|---------------------------------| Gtr.3Hb|----------------------------------|---------------------------------| Gb|--5---------------5---------------|-6-------------------------------| Db|--7---------------7-----9-----7---|-7-------------------------------| Ab|------------------------10----9---|---------------------------------| Eb|----------------------------------|---------------------------------| (4:49 - 4:58) RIFF 3: Gtr.2Eb|--12p8--8--12p8--8--12p8--8--12p8--8--12p8--8--8--|-12p8--8--12p8--8--12p8--8--12p8--8--12p8--8--8--| Gtr.3Hb|--13p10-10-13p10-10-13p10-10-13p10-10-13p10-10-10-|-13p10-10-13p10-10-13p10-10-13p10-10-13p10-10-10-| Gb|--------------------------------------------------|-------------------------------------------------| Db|--------------------------------------------------|-------------------------------------------------| Ab|--------------------------------------------------|-------------------------------------------------| Eb|--------------------------------------------------|-------------------------------------------------| | | | Gtr.4Eb|--------------------------------------------------|-------------------------------------------------| + Hb|--------------------------------------------------|-------------------------------------------------| bass Gb|--------------------------------------------------|-------------------------------------------------| Db|--------------------------------------------------|-------------------------------------------------| Ab|--3-p0--0--3-p0--0--3-p0--0--3-p0--0--3-p0--0--0--|-3-p0--0--3-p0--0--3-p0--0--3-p0--0--3-p0--0--0--| Eb|--------------------------------------------------|-------------------------------------------------| Gtr.2Eb|--15p12-12-15p12-12-15p12-12-15p12-12-15p12-12----|-15p12-12-15p12-12-15p12-12-15p12-12-15p12-12----| Gtr.3Hb|--17p13-13-17p13-13-17p13-13-17p13-13-17p13-13----|-17p13-13-17p13-13-17p13-13-17p13-13-17p13-13----| Gb|--------------------------------------------------|-------------------------------------------------| Db|--------------------------------------------------|-------------------------------------------------| Ab|--------------------------------------------------|-------------------------------------------------| Eb|--------------------------------------------------|-------------------------------------------------| | | | Gtr.4Eb|--------------------------------------------------|-------------------------------------------------| + Hb|--------------------------------------------------|-------------------------------------------------| bass Gb|--------------------------------------------------|-------------------------------------------------| Db|--------------------------------------------------|-------------------------------------------------| Ab|--3-p0--0--3-p0--0--3-p0--0--3-p0--0--3-p0--0--0--|-3-p0--0--3-p0--0--3-p0--0--3-p0--0--3-p0--0--0--| Eb|--------------------------------------------------|-------------------------------------------------| (4:58 - 5:39) CHORUS (slows down in the end) Tempo: slowly (87 bpm) (5:39 - 6:05) OUTRO VERSE

    искать в аптеке
    список лекарств






    О сайтеАккордыХит-парадПоискУроки ФорумыИщу песню
    ПрограммыСвежачок-сПодпискаСтатьи
    Яндекс.Метрика