Аккорды Radiohead | Go To Sleep гитара табулатуры уроки тексты песен Radiohead текст lyrics песня аккорды песни ноты нота электрогитара струна  
   А Б В Г Д Е Ж З И К Л М Н О П Р С Т У Ф Х Ч Ш Ы Э Ю Я       Разные песни
1-9 A B C D E F G H I J K L M N O P Q R S T U V W Y Z      Все исполнители in english

    



группа Radiohead, Аккорды песни Go To Sleep

Продолжаем грести бабос на ботах в Telegram.
Только в этот раз есть вариант автоматизировать это дело, привлекая рефералов. Вы можете заработать если »

Группа: Radiohead - другие аккорды (189),   о группе (6 статей),   диски (9),   фотографии (134)
Аккорды песни: Go To Sleep
Просмотров: 1263
Прислал: Echo (indiespace@akkords.ru)




    
standard tuning
chords used:
   G    Bb   C
e--3----1----3---------------------------------------------------------
B--3----3----5---------------------------------------------------------
G--0----3----5---------------------------------------------------------
D--0----3----5---------------------------------------------------------
A--2----1----3---------------------------------------------------------
E--3-------------------------------------------------------------------

intro/verse (guitar 1):
     G
e----3-----------------------------------------------------------------
B----3----3---3---3---3------------------------------------------------
G----0----0---0---0---0------------------------------------------------
D----0----0---0---0---0------------------------------------------------
A----2--1---0---3---1--------------------------------------------------
E-/3-3-----------------------------------------------------------------
verse (guitar 2):
     G
e----3----6---5---8---6------------------------------------------------
B----3----6---5---8---6------------------------------------------------
G----0-----------------------------------------------------------------
D----0-----------------------------------------------------------------
A----2-----------------------------------------------------------------
E--3-3--6---5---8---6--------------------------------------------------
something for the rag and bone man

Продолжаем грести бабос на ботах в Telegram.
Только в этот раз есть вариант автоматизировать это дело, привлекая рефералов. Вы можете заработать если »

over my dead body... and so on chorus: Bb C Bb C i'm gonna go to sleep and let this wash all over me post chorus: G Bb C G we don't really want a monster taking over... and so on lead: G Bb C e---------------------------------------------------------------------- B---------------------------------------------------------------------- G---------------------------------------------------------------------- D--7-5----------------------------------------------------------------- A-------8-7--3-5------------------------------------------------------- E---------------------------------------------------------------------- chorus: Bb C Bb C i'm gonna go to sleep, and come to you as you sleep and then another part: G Bb with this lead: e----/9---------------------------------------------------------------- B--8-----8-6-8--------------------------------------------------------- G---------------------------------------------------------------------- D---------------------------------------------------------------------- A---------------------------------------------------------------------- E---------------------------------------------------------------------- and then [G Bb C + lead] till fade out

http://www.geocities.com/kingoftheeskimos
лекарство в аптеке
список лекарств

Gta 5 на пс4

gta 5 на пс4

shop-gaming.ru

Электродвигатель MTF(H)311-8

ask-kran.ru








О сайтеАккордыХит-парадПоискУроки ФорумыИщу песню
ПрограммыСвежачок-сПодпискаСтатьи
Яндекс.Метрика