Аккорды Король и Шут | Пpыгнy со скалы  (5) гитара табулатуры уроки тексты песен Король и Шут текст lyrics песня аккорды песни ноты нота электрогитара струна  
   А Б В Г Д Е Ж З И К Л М Н О П Р С Т У Ф Х Ч Ш Ы Э Ю Я       Разные песни
1-9 A B C D E F G H I J K L M N O P Q R S T U V W Y Z      Все исполнители in english

    



группа Король и Шут, Аккорды песни Пpыгнy со скалы (5)

Работа в Европе для граждан РФ, Украины, СНГ

  • минимальная зарплата $500.
  • виза и контракт на полгода, возможно продление
  • проживание оплачивает работодатель
  • нужен только загранпаспорт
  • оформление 190 €
  • данное предложение - отличная возможность эмигрировать в Европу и закрепиться здесь навсегда.

  • Мы свяжемся с Вами по WhatsApp или Viber и ответим на любые вопросы.
    на нашем сайте можно почитать подробнее »

    Группа: Король и Шут - другие аккорды (277),   о группе (10 статей),   диски (9),   фотографии (68)
    Аккорды песни: Пpыгнy со скалы (5)
    Просмотров: 3548
    Подобрал: Макс (Korol-i-shut4@yandex.ru)




        
    1--------1------1---------1-----1--|
    2--------3------3---------3-----3--|
    3-----2------2---------2-----2-----|
    4--0----------------0---------------|
    5------------------------------------|
    6------------------------------------|
       с головы сорвал
    1---------3------3------------5--------5-|
    2---------3------3------------5--------5-|
    3-----3-------3------------6-------6-----|
    4--5-------------------7-------------------|
    5-------------------------------------------|
    6-------------------------------------------|
        ветер           мой колпак
    1--------1------1---------1-----1--|
    2--------3------3---------3-----3--|
    3-----2------2---------2-----2-----|
    4--0----------------0---------------|
    5------------------------------------|
    6------------------------------------|
       я   хотел любви
      
    1---------3------3------------5--------5-|
    2---------3------3------------5--------5-|
    3-----3-------3------------6-------6-----|
    4--5-------------------7-------------------|
    5-------------------------------------------|
    6-------------------------------------------|
      но вышло     все не так
    1--------1------1-----------3------3------|
    2--------1------1-----------3------3--------|
    3-----2------2----------4-------4-----------|
    4--3-----------------5--------------------|
    5---------------------------------------|
    6---------------------------------------|
       знаю я        ничего
    1--------1------1---------1-----1--|
    2--------3------3---------3-----3--|
    3-----2------2---------2-----2-----|
    4--0----------------0---------------|
    5------------------------------------|
    6------------------------------------|
      в жизни не    вернуть
    
    Узнай ВСЕ о своем друге в ВК или FB
    1------------1-------1---------3------3--3---3--| 2------------1-------1---------3------3--3---3--| 3--------2-------2----------4------4-----6---6---| 4---3--------------------5---------------7---7---| 5----------------------------------------7---7---| 6----------------------------------------5---5---| и теперь у меня один лишь только путь 1-----------------------------------------------| 2----------------------------------------------| 3----------------------------------------------| 4--77777--------55555----------------------------------| 5--55555--------33333--------55555------77777-----| 6----------------------------33333------55555------| разбежавшись прыгну со скалы вот я был и вот меня не стало 1--------------------------------------------------------------| 2-------------------------------------------------------------| 3-------------------------------------------------------------| 4---------------------------------------------------------------| 5---3333---------7777--------5555---------7777---------------------------------| 6--11111---------5555--------3333---------5555-----------------------------------| и тогда когда узнаешь ты,тогда поймешь кого ты потеряла Соло: 1------------------------------------------------------------------| 2-----------------------------------------------10--8----------------| 3--10--10---10-10---9--7-----------------7---------------10--9---| 4---------------------------------10---7--------------------------| 5------------------------------------------------------------------| 6-------------------------------------------------------------------| 1-----------------------------------------------------------------------| 2-----------------------------------------------14--12-----------------| 3--10--10---10-10---9--7-----------------7---------------13---------| 4----------------------------------10--7------------------------14------| 5---------------------------------------------------------------------| 6---------------------------------------------------------------------| после первого и второго куплета соло одинаковые, после третьего в конце чуть иначе: 1---------------------------------------------------------------------| 2-----------------------------------------------14--12-----------------13bent-----| 3--10-10---10--10---9--7-----------------7---------------13------------------------ 4---------------------------------10--7-------------------------14-----------| 5-----------------------------------------------------------------------| 6-----------------------------------------------------------------------|

    лекарство в аптеке
    список лекарств

    Ремни контитеч

    Ремни оптом для промышленности. Приводные, клиновые,зубчатые и пр

    autokru.ru








    О сайтеАккордыХит-парадПоискУроки ФорумыИщу песню
    ПрограммыСвежачок-сПодпискаСтатьи
    Яндекс.Метрика