Басовая табулатура Metallica | Die, Die My Darling гитара табулатуры уроки тексты песен Metallica текст lyrics песня аккорды песни ноты нота электрогитара струна  
   А Б В Г Д Е Ж З И К Л М Н О П Р С Т У Ф Х Ч Ш Ы Э Ю Я       Разные песни
1-9 A B C D E F G H I J K L M N O P Q R S T U V W Y Z      Все исполнители in english

    



группа Metallica, Басовая табулатура песни Die, Die My Darling

Продолжаем грести бабос на ботах в Telegram.
Только в этот раз есть вариант автоматизировать это дело, привлекая рефералов. Вы можете заработать если »

Группа: Metallica - другие аккорды (225),   о группе (32 статей),   диски (11),   фотографии (49)
Басовая табулатура песни: Die, Die My Darling
Просмотров: 2126
Прислал: Forever (forever@akkords.ru)




    
Die Die My Darling
Metallica
Garage Inc.
Tabbed by: BassPlayaC@aol.com

Intro:
|---------------------------------------|PLAY 3 X
|---------------------------------------|PLAY 3 X
|-2-2-2-2-2-2-2-2-----------------------|PLAY 3 X
|------------------3-3-3-3-3--2-2-2-2-2-|PLAY 3 X

FIG B
|----------------------------------------------------
|----------------------------------------------------
|---------------------------2-2--2-2-2--2-2-2--2-2-2-
|-0-0--0-0-0--0-0-0--0-0-0---------------------------

-------------------------------|PLAY FIG B X1 
-------------------------------|PLAY FIG B X1

Продолжаем грести бабос на ботах в Telegram.
Только в этот раз есть вариант автоматизировать это дело, привлекая рефералов. Вы можете заработать если »

-------------------------------|PLAY FIG B X1 -0-0--0-0-0--3-3-3-3-3-3-3-3-2-|PLAY FIG B X1 FIG C |----------------------------------------------------|PLAY 7 X |----------------------------------------------------|PLAY 7 X |-2-2--2-2-2--2-2-2--2-2-2--------------5-5-5--4-4-4-|PLAY 7 X |---------------------------3-3--3-3-3---------------|PLAY 7 X REPEAT INTRO - FIG C NOTE: ONLY PLAY INTRO 2 X THEN, PLAY INTRO 2X, AND FIG B 1X |--------------------| |--------------------| |-2-2-2-2-2-2-2------|lET THE LAST -2- RING OUT |--------------------|

лекарство в аптеке
список лекарств






О сайтеАккордыХит-парадПоискУроки ФорумыИщу песню
ПрограммыСвежачок-сПодпискаСтатьи
Яндекс.Метрика