Табулатура Metallica | Die, Die My Darling гитара табулатуры уроки тексты песен Metallica текст lyrics песня аккорды песни ноты нота электрогитара струна  
   А Б В Г Д Е Ж З И К Л М Н О П Р С Т У Ф Х Ч Ш Ы Э Ю Я       Разные песни
1-9 A B C D E F G H I J K L M N O P Q R S T U V W Y Z      Все исполнители in english

    



группа Metallica, Табулатура песни Die, Die My Darling

Группа: Metallica - другие аккорды (225),   о группе (32 статей),   диски (11),   фотографии (49)
Табулатура песни: Die, Die My Darling
Просмотров: 5003
Прислал: Forever (forever@akkords.ru)




    
Die, Die My Darling
written by The Misfits
as performed by Metallica on Garage Inc
tab by Brad Ryder and Phil Boyle; 

Tune all guitars down 1/2 step
1)
eb------------------------------
Bb--4--4--4--4--4--4--4--4------
Gb--4--4--4--4--4--4--4--4--4--3
Db--4--4--4--4--4--4--4--4--5--4
Ab--2--2--2--2--2--2--2--2--5--4
Eb--------------------------3--2
 "Die, die, die my darlin..."

2a) James
eb-----------------------------------------------------------
Bb-------4--4--4--4--4--4--4--4------------------------------
Gb--1----4--4--4--4--4--4--4--4----1-----4------------------4
Db--2----4--4--4--4--4--4--4--4----2-----5------------------5
Ab--2----2--2--2--2--2--2--2--2----2-----5------------------5
Eb--0------------------------------0-----3--3-3-3-3-3-3-3-3-3
   "Oh, I'll be seeing you again..."       pm-------------|
   
2b)
eb-----------------------------------------------------------
Bb------4----------------------------------------------------
Узнай ВСЕ о своем друге в ВК или FB
Gb--1---4--4--4--4--4--4-4/64-----1-----4------------------4 Db--2---4--4--4--4--4--------------2-----5------------------5 Ab--2---2--2--2--2--2--2-2/42-----2-----5------------------5 Eb--0------------------------------0-----3--3-3-3-3-3-3-3-3-3 3) eb-------------------------------------- Bb--4--4--4--4--4--4--4--4-------7--6--4 Gb--4--4--4--4--4--4--4--4--6----7--6--4 Db--4--4--4--4--4--4--4--4--5----7--6--4 Ab--2--2--2--2--2--2--2--2--5----5--4--2 Eb--------------------------3----------- "Don't cry to me oh baby..." 4a) 4b) eb---------------------- --14 Bb--12-12-12-12-12-12-12 ---- Gb---------------------- ---- Db---------------------- ---- Ab---------------------- ---- Eb---------------------- ---- Riff 4a goes through the entire song until the end where 4b rings out.

найти лекарство
список лекарств

Пластиковые бутылки цена

пластиковые бутылки цена

m-pet.ru








О сайтеАккордыХит-парадПоискУроки ФорумыИщу песню
ПрограммыСвежачок-сПодпискаСтатьи
Яндекс.Метрика