Табулатура Dimmu Borgir | Master Of Disharmony гитара табулатуры уроки тексты песен Dimmu Borgir текст lyrics песня аккорды песни ноты нота электрогитара струна  
   А Б В Г Д Е Ж З И К Л М Н О П Р С Т У Ф Х Ч Ш Ы Э Ю Я       Разные песни
1-9 A B C D E F G H I J K L M N O P Q R S T U V W Y Z      Все исполнители in english

    



группа Dimmu Borgir, Табулатура песни Master Of Disharmony

Продолжаем грести бабос на ботах в Telegram.
Только в этот раз есть вариант автоматизировать это дело, привлекая рефералов. Вы можете заработать если »

Группа: Dimmu Borgir - другие аккорды (21),   о группе (1 статей),   диски (5)
Табулатура песни: Master Of Disharmony
Просмотров: 1065
Подобрал: Nikolaj Balle and Simon A (vip211@ezmail.ru)




    
DIMMU BORGIR
'Master Of Disharmony'
from the album 'Enthrone Darkness Triumphant'

transcribed by
  Nikolaj Balle and Simon Andersen
Tuning: standard
Marking:
palm mute:  .....
let ring: l
vibrato: ~
Riff 1:
|---------------------------------------------------------------------|
|---------------------------------------------------------------------|
|---------------------------------------------------------------------|
|---------------------------------------------------------------------|
|-88888888888888888888888888888888---22222222222222222222222222222222-|
|-66666666666666666666666666666666---00000000000000000000000000000000-|

Riff 2:
|-------------------|
|-------------------|
|-------------------|
|-------------------|
|--8----2-----------|
|--6----0-----------|
   l    l

Riff 3:                                 1st time      2nd time  
|---------------------------------------|-------------|-------------|
|---------------------------------------|-------------|-------------|
|-------------222-555-444---------------|-------------|-------------|
|-----444-555------------------444-555--|-222-111-----|-111-222-----|
|-222----------------------222----------|---------333-|---------333-|
|---------------------------------------|-------------|-------------|

Riff 4:                           Fill1:
|---------------------------------|------------|
|---------------------------------|------------|
|---------------------------------|------------|
|---------------------------------|-9-8--------|
|-77777777--10101010-666666666666-|-----10-----|
|---------------------------------|------------|

Second guitar to riff 4:
|-----------------------------------|
|-----------------------------------|
|-------9-------9--------8-------8--|
|----9-------9--------8-------8-----|
|-7-------7--------6-------6--------|
|-----------------------------------|
  .  .    .  .     .  .    .  .

Продолжаем грести бабос на ботах в Telegram.
Только в этот раз есть вариант автоматизировать это дело, привлекая рефералов. Вы можете заработать если »

Riff 5: |--------------------------------------------------| |--------------------------------------------------| |--------------------------------------------------| |--------------------------------------000-555-444-| |-----222-333-----222-333-----222-333--------------| |-000---------333---------333----------------------| Fill2: |------------| |------------| |------------| |------------| |-10-9~------| |-------10---| Riff 6: |--------------------------------------------------| |--------------------------------------------------| |--------------------------------------------------| |--------------------------------------------------| |-9-99-9-99-9-99-9---------7-77-7-77-7-77-7--------| |-7-77-7-77-7-77-7--10-9~--5-55-5-55-5-55-5--10-9~-| .. .. .. .. .. .. Play that riff above under solo. Riff 7: Fill3: Fill4: Fill5: |------------------|-----------|-----------|-------------| |------------------|-----------|-----------|-------------| |------------------|-----------|-----------|-------------| |-9-99--7-77--9-99-|--9-8------|--8-9------|--8-9-7------| |-7-77--5-55--7-77-|--7-6--10--|--6-7--10--|--6-7-6--10--| |------------------|-------8---|-------8---|---------8---| . . . Play riff 7 under this: 1st 2nd |---------------------|-------|-------| |---------------------|-------|-------| |--------2-5-4--------|-------|-------| |---4-5-----------4-5-|-2-1---|-1-2---| |-2-------------2-----|-----3-|-----3-| |---------------------|-------|-------|

искать в аптеке
список лекарств






О сайтеАккордыХит-парадПоискУроки ФорумыИщу песню
ПрограммыСвежачок-сПодпискаСтатьи
Яндекс.Метрика