Табулатура Dimmu Borgir | Mourning Palace гитара табулатуры уроки тексты песен Dimmu Borgir текст lyrics песня аккорды песни ноты нота электрогитара струна  
   А Б В Г Д Е Ж З И К Л М Н О П Р С Т У Ф Х Ч Ш Ы Э Ю Я       Разные песни
1-9 A B C D E F G H I J K L M N O P Q R S T U V W Y Z      Все исполнители in english

    



группа Dimmu Borgir, Табулатура песни Mourning Palace

Продолжаем грести бабос на ботах в Telegram.
Только в этот раз есть вариант автоматизировать это дело, привлекая рефералов. Вы можете заработать если »

Группа: Dimmu Borgir - другие аккорды (21),   о группе (1 статей),   диски (5)
Табулатура песни: Mourning Palace
Просмотров: 1294
Подобрал: Viper (vip211@ezmail.ru)




    
DIMMU BORGIR
'Mourning Palace'
from the album 'Enthrone Darkness Triumphant'

 Intro 
 e:------------|
 B:------------|
 G:------------|
 D:-4--7-6--9--|
 A:-2--5-4--7--|
 E:------------|

 Riff A-1:
 
 e:------------------------------------------------------------------|
 B:------------------------------------------------------------------|
 G:------------------------------------------------------------------|
 D:-4--------4--------4--------4--------4--------4--------4--7-6--9--|
 A:-4---4444-4---4444-4---4444-4---4444-4---4444-4---4444-2--5-4--7--|
 E:-2---2222-2---2222-2---2222-2---2222-2---2222-2---2222------------|
 pm     ....     ....     ....     ....     ....     ....
 

 Riff A-2:
 e:-------------------------------------------------------------------
 B:-------------------------------------------------------------------
 G:-------------------------------------9------9----------------------
 D:-4--------4--------4--------4--------9--999-9--998--9------9-------
 A:-4---4444-4---4444-4---4444-4---4444-7--777-7--776--9-999--9-999---
 E:-2---2222-2---2222-2---2222-2---2222----------------7-777--7-777---
        ....     ....     ....     ....
 
   ------------------------------------------------------------------|
   ------------------------------------------------------------------|
   -------------------------------------9------11-98--------/11------|
   -4--------4--------4--------4--------9--999-11-98--9--------------|
   -4---4444-4---4444-4---4444-4---4444-7--777-9--76--9-999----------|
   -2---2222-2---2222-2---2222-2---2222---------------7-777----------|
        ....     ....     ....     ....
 

 Riff B-1:                     Riff B-2:
 e:---------------------------|---------------------------------------|
 B:---------------------------|---------------------------------------|
 G:---------------------------|---------------------------------------|
 D:-5-5---4--4/7--7--7---5-5--|---------------------------------------|
 A:-3-3---2--2/5--5--5---3-3--|-5-5---4--4/5--5--5---4--4/5-----------|
 E:---------------------------|-3-3---2--2/3--3--3---2--2/3-----------|

 Riff C-1:
 e:------------------------------------------------------------------
 B:------------------------------------------------------------------
 G:--------------------------------------------5------7/8------------

Продолжаем грести бабос на ботах в Telegram.
Только в этот раз есть вариант автоматизировать это дело, привлекая рефералов. Вы можете заработать если »

D:------9------8------9------8------9------8--5------7/8------------ A:-7-10---7-10---7-10---7-10---7-10---7-10----3------5/6------------ E:------------------------------------------------------------------ Riff C-2: e:--------------------------------------| B:--------------------------------------| G:------------------------------5----7--| D:------9------8------9------8--5----7--| A:-7-10---7-10---7-10---7-10----3----5--| E:--------------------------------------| Riff D-1: e:--------------------------------------------------------------------| B:--------------------------------------------------------------------| G:--------------------------------------------------------------------| D:-------44444-----55555-44444-333----------------------------555-444-| A:-22222-------222-----------------------55555------------222---------| E:---------------------------------33333-------33333--000-------------| Riff D-2: e:--------------------------------------------------------------------| B:--------------------------------------------------------------------| G:------------------------------4-------------------------------------| D:-----4---4-5-4-2-----4-2--4-5--------4---4-5-4-2-------------5-4----| A:-2----------------2--------------2--------------------5----2--------| E:--------------------------------------------------3------0----------| SONG STRUCTURE: - Intro (guitar) - Riff A-1 x 2 - Riff A-1 x 4 With Vocals - Riff A-2 x 2 - Intro - Riff A-1 x 4 With Vocals - Riff A-2 x 2 - Riff B-1 & B-2 x 5 - Riff B-1 x 1 - Riff C-1 x 5 - Riff C-2 x 4 With Vocals - Riff B-2 & B-1 x 4 - Riff D-1 x 8 - Riff D-2 x 4 - Riff D-1 x 4

лекарство в аптеке
список лекарств






О сайтеАккордыХит-парадПоискУроки ФорумыИщу песню
ПрограммыСвежачок-сПодпискаСтатьи
Яндекс.Метрика