Табулатура Dimmu Borgir | Broderskapets Ring гитара табулатуры уроки тексты песен Dimmu Borgir текст lyrics песня аккорды песни ноты нота электрогитара струна  
   А Б В Г Д Е Ж З И К Л М Н О П Р С Т У Ф Х Ч Ш Ы Э Ю Я       Разные песни
1-9 A B C D E F G H I J K L M N O P Q R S T U V W Y Z      Все исполнители in english

    



группа Dimmu Borgir, Табулатура песни Broderskapets Ring

Работа в Европе для граждан РФ, Украины, СНГ

  • минимальная зарплата $500.
  • виза и контракт на полгода, возможно продление
  • проживание оплачивает работодатель
  • нужен только загранпаспорт
  • оформление 190 €
  • данное предложение - отличная возможность эмигрировать в Европу и закрепиться здесь навсегда.

  • Мы свяжемся с Вами по WhatsApp или Viber и ответим на любые вопросы.
    на нашем сайте можно почитать подробнее »

    Группа: Dimmu Borgir - другие аккорды (21),   о группе (1 статей),   диски (5)
    Табулатура песни: Broderskapets Ring
    Просмотров: 894
    Подобрал: Nikolaj Balle and Simon A (vip211@ezmail.ru)




        
    DIMMU BORGIR
    'Broderskapets Ring'
    from the album 'Stormblast'
    
    transcribed by
      Nikolaj Balle and Simon Andersen
    
    Tuning: Standard
    Marking:
    Palm mute: .....
    Let ring: l
    Riff 1:
    |-----------------------------------------------------------------|
    |-----------------------------------------------------------------|
    |-----------------------------------------------------------------|
    |-9-9-9-9-9-9-----------------------------------------------------|
    |-7-7-7-7-7-7--7-7-7-7-7-7--10-10-10-10-10-10--12-12-12-12-12-12--|
    |--------------5-5-5-5-5-5--8--8--8--8--8--8---10-10-10-10-10-10--|
                            
    Riff 2:
    |-----------------------------------------------------------------------|
    |-----------------------------------------------------------------------|
    |-----------------------------------------------------------------------|
    |-----------------------------------------------------------------------|
    |-7-7-7-7-7-7--10-10-10--9--10-12--14-14-14-14-14-14-14-14-14-14-14-14--|
    |-5-5-5-5-5-5--8--8--8---7--8--10--12-12-12-12-12-12-12-12-12-12-12-12--|
    
    Riff 3:
    |-----------------------------------------------------------|
    
    Узнай ВСЕ о своем друге в ВК или FB
    |-----------------------------------------------------------| |-----------------------------------------------------------| |-7-7-7-7-7-7--10-10-10-10-10-10----------------------------| |-5-5-5-5-5-5--8--8--8--8--8--8--7-7-7-7-7-7--3-3-3--5-5-5--| |--------------------------------5-5-5-5-5-5--1-1-1--3-3-3--| Guitar 2: |------------------------------------------------------| |------------------------------------------------------| |------------------------------------------------------| |-------7------------7---------------------------------| |-5-7-8---8-7--5-7-8---8-7--7-7-7-7-7-7--3-3-3--5-5-5--| |---------------------------5-5-5-5-5-5--1-1-1--3-3-3--| Song Structure: Riff 1: (6x) Riff 2: (4x) Riff 1: (4x) Riff 3: (4x) on the third time Guitar 2 starts to play Riff 2: (4x) Riff 3: (10x) on the fifth time guitar 2 starts to play Song is faded away but play at least 10 times that riff above.

    найти лекарство
    список лекарств






    О сайтеАккордыХит-парадПоискУроки ФорумыИщу песню
    ПрограммыСвежачок-сПодпискаСтатьи
    Яндекс.Метрика