Табулатура Dimmu Borgir | Alt Lys Er Svunnet Hen гитара табулатуры уроки тексты песен Dimmu Borgir текст lyrics песня аккорды песни ноты нота электрогитара струна  
   А Б В Г Д Е Ж З И К Л М Н О П Р С Т У Ф Х Ч Ш Ы Э Ю Я       Разные песни
1-9 A B C D E F G H I J K L M N O P Q R S T U V W Y Z      Все исполнители in english

    



группа Dimmu Borgir, Табулатура песни Alt Lys Er Svunnet Hen

Продолжаем грести бабос на ботах в Telegram.
Только в этот раз есть вариант автоматизировать это дело, привлекая рефералов. Вы можете заработать если »

Группа: Dimmu Borgir - другие аккорды (21),   о группе (1 статей),   диски (5)
Табулатура песни: Alt Lys Er Svunnet Hen
Просмотров: 942
Подобрал: Viper (vip211@ezmail.ru)




    
DIMMU BORGIR - ALT LYS ER SVUNNET HEN
Tuning: Standard
Palm mute: ......
Let ring: l

Riff 1:
|---------------------------------|
|---------------------------------|                
|---------------------------------|                
|---------------------------------|
|-777777777777-333333333333-5-6---|
|-555555555555-111111111111-3-4---|

Riff 2:
|----------------------------------------------------------|
|----------------------------------------------------------|                
|----------------------------------------------------------|                
|------------------------------9-9-9-9---------------------|
|-7-7-7--7--9--7--5-5-5-5-5-5--7-7-7-7--10-9--7-7-7-7-7-7--|
|-5-5-5--5--7--5--3-3-3-3-3-3-----------8--7--5-5-5-5-5-5--|

Riff 3:
|-----------------------------------|
|-----------------------------------|
|-----------------------------------|
|---------9-------------------------|
|-7-7--10----7--7-7-7-7--9-9-9-9-9--|
|------------5--5-5-5-5--7-7-7-7-7--|

Riff 4:
|---------------------------------|
|---------------------------------|
|---------------------------------|

Продолжаем грести бабос на ботах в Telegram.
Только в этот раз есть вариант автоматизировать это дело, привлекая рефералов. Вы можете заработать если »

|---------------------------------| |-777777777777-333333333333-------| |-555555555555-111111111111-------| Riff 5: (I'm not sure about this part) |---------------------------------------------------------------------| |---------------------------------------------------------------------| |---------------------------------------------------------------------| |---------------------------------------------------------------------| |-7-7777--7-777-8---------------10-10101010-10-10101010--12-12121212--| |-----------------8-8888-8-8888---------------------------------------| Verse: |--------------------------------------------------------| |--------------------------------------------------------| |--------------------------------------------------------| |-9--9-9-9--8-7--7--7-7-7--------------------------------| |-7--7-7-7--6-5--5--5-5-5--5--5-5--4-4--5-5--9--9-9-9-9--| |--------------------------3--3-3--2-2--3-3--7--7-7-7-7--| Riff 6: |---------------------------------------------------------| |---------------------------------------------------------| |---------------------------------------------------------| |---------------444--------------------------444-4-7-6-4--| |-555555-444444-222-555-222222-555555-444444-222-2-5-4-2--| |-333333-222222-----333-000000-333333-222222--------------|

лекарство в аптеке
список лекарств






О сайтеАккордыХит-парадПоискУроки ФорумыИщу песню
ПрограммыСвежачок-сПодпискаСтатьи
Яндекс.Метрика