Kings Of Leon | Wicker Chair      Kings Of Leon  lyrics        
        
1-9 A B C D E F G H I J K L M N O P Q R S T U V W Y Z     

    



Kings Of Leon, Wicker Chair

: Kings Of Leon - (20),    (1),    (2)
: Wicker Chair
: 1302
: Festi N. (festinalente@mail2000.ru)




    
Chords
C   - X32010
C9  - X32030
CMaj- X32000
C7  - X32310
FMaj- XX3210
G   - 320033
Fm  - xx3111
	
-------------------------------------------------------------------------------------
Intro
The intro probably isn't that right but it sounds nice before the main verse and
Chorus - Try and countryify it up a bit and it sounds great

C9		C	    CMaj	C		C7 (let ring)	  Fmaj
-----0-0-----------0-----|-----0---------0---------|------0-------0-----0----0-
----3----3--------1---1--|----0--0------1---1------|-----1-------1-----1----1--
---0----0-0------0---0-0-|---0--0-0----0---0-0 ----|----3-------3-----3----2---
--2-------------2--------|--2---------2------------|---2-------2-----2----3----
-3-------------3---------|-3---------3-------------|--3-------3-----3----------
-------------------------|-------------------------|---------------------------

C9		C	    CMaj	C		C7 (let ring)	  Fmaj
-----0-0-----------0-----|-----0---------0---------|------0-------0-----0----0-
----3----3--------1---1--|----0--0------1---1------|-----1-------1-----1----1--
---0----0-0------0---0-0-|---0--0-0----0---0-0 ----|----3-------3-----3----2---
--2-------------2--------|--2---------2------------|---2-------2-----2----3----
-3-------------3---------|-3---------3-------------|--3-------3-----3----------
-------------------------|-------------------------|---------------------------
Verse
C9		C
In your little white wicker chair
Cmaj			C		
Unsuspicious nobody cares for you
C7			Fmaj

Telegram.
, . »

Youre so fucked up again C9 C You laugh at nothin in the pouring rain Cmaj C Try to tell yourself youre not insane C7 Fmaj You fool, I hate you sometimes Chorus G Fmaj Hey, you know it aint coincidental that youre lost in place Fmaj Fm Its drippin off your face, and youre losin your precious mind C9 C Send me a postcard if you get that far CMAJ C You got a couple pennies in your rusty jar C7 Fmaj The truth youve been gone for awhile C9 C Its hard lookin at you when you look that way Cmaj C With your one night stands and your sleep all days C7 Fmaj Ooh youre such a slut sometimes G Fmaj Hey, you know it aint coincidental that youre lost in place Fmaj Fm Its drippin off your face, and youre losin your precious mind C9 Youre losing your mind C Youre losing your mind Cmaj Youre losing your mind C Youre losing your mind C7 Youre losing your mind








-
-
.