Табулатура Kings Of Leon | Molly`s Chambers гитара табулатуры уроки тексты песен Kings Of Leon текст lyrics песня аккорды песни ноты нота электрогитара струна  
   А Б В Г Д Е Ж З И К Л М Н О П Р С Т У Ф Х Ч Ш Ы Э Ю Я       Разные песни
1-9 A B C D E F G H I J K L M N O P Q R S T U V W Y Z      Все исполнители

    



группа Kings Of Leon, Табулатура песни Molly`s Chambers

Группа: Kings Of Leon - другие аккорды (20),   диски (1),   фотографии (2)
Табулатура песни: Molly`s Chambers
Просмотров: 947
Подобрал: Festi N. (festinalente@mail2000.ru)




    
Verse
e------------------------------------2~--0-2-0-2-0--2~--0-2-0-2-0--|
B------------------------------------2~--0-2-0-2-0--2~--0-2-0-2-0--|
G--3-----3---3-----3-----3---3---3---------------------------------|
D--4---4-4-4-4-4---4---4-4-4-4-4-4---------------------------------|
A--4---4-4-4-4-4---4---4-4-4-4-4-4---------------------------------|
E--2~--0-2-0-2-0---2~--0-2-0-2-0-2---------------------------------|
 "Free, that's all that she could bleed...."

Chorus
There's 2 approaches to this....
e----------------------------2--0-2-0-2-0--2--0-2-0-2-0---|
B--4-4-4-4----7-7-7-7--------2--0-2-0-2-0--2--0-2-0-2-0---|
G--4-4-4-4----7-7-7-7-------------------------------------|
D--4-4-4-4----7-7-7-7-------------------------------------|
A--2-2-2-2----5-5-5-5-------------------------------------|
E---------------------------------------------------------|
or.... (the way I prefer)
e---------------------------(and all that 2nd fret goodness)--|
B-------------------------------------------------------------|
G--8-8-8-8---11-11-11-11--------------------------------------|
D--x-x-x-x----x--x--x--x--------------------------------------|
A--9-9-9-9---12-12-12-12--------------------------------------|
E--7-7-7-7---10-10-10-10--------------------------------------|
Solo (or my vision of it anyway)

Продолжаем грести бабос на ботах в Telegram.
Только в этот раз есть вариант автоматизировать это дело, привлекая рефералов. Вы можете заработать если »

e--14^-14^-14^-14^---14^-14p12-----------------------------------| B-----------------------------14p12------------------10--12-12^--| G-----------------------------------14-14^--11--9/11-------------| D----------------------------------------------------------------| A----------------------------------------------------------------| E----------------------------------------------------------------| e------12------12------12------12--------17^^--17p14----------------------| B--14^-----14^-----14^-----14^-----14~--------------17p14-----------------| G----------------------------------------------------------16^-16-16--14--| D-------------------------------------------------------------------------| A-------------------------------------------------------------------------| E-------------------------------------------------------------------------| e----------------------------------| B-----17-----17-----17-----17------| G--18-----18-----18-----18----18~--| D----------------------------------| A----------------------------------| E----------------------------------|








О сайтеАккордыХит-парадПоискУроки ФорумыИщу песню
ПрограммыСвежачок-сПодпискаСтатьи
Яндекс.Метрика