Табулатура Dimmu Borgir | Raabjorn Spieler Draugheimens Skodde гитара табулатуры уроки тексты песен Dimmu Borgir текст lyrics песня аккорды песни ноты нота электрогитара струна  
   А Б В Г Д Е Ж З И К Л М Н О П Р С Т У Ф Х Ч Ш Ы Э Ю Я       Разные песни
1-9 A B C D E F G H I J K L M N O P Q R S T U V W Y Z      Все исполнители in english

    



группа Dimmu Borgir, Табулатура песни Raabjorn Spieler Draugheimens Skodde

Продолжаем грести бабос на ботах в Telegram.
Только в этот раз есть вариант автоматизировать это дело, привлекая рефералов. Вы можете заработать если »

Группа: Dimmu Borgir - другие аккорды (21),   о группе (1 статей),   диски (5)
Табулатура песни: Raabjorn Spieler Draugheimens Skodde
Просмотров: 793
Подобрал: Viper (vip211@ezmail.ru)




    
DIMMU BORGIR
'Raabjorn speiler draugheims skodde'
from the album 'For All Tid'

intro guitar
like this an so forth.
|-------------------------------|
|-------------------------------|
|-------0-------0------0------0-|
|-----4-------4------4------4---|
|---2-------2------2------2-----|
|-2------2-------0------0-------|
Riff 1
|--------------|
|--------------|
|--------4-----|
|-2------4-----|
|-2------2-----|
|-0------------|
Riff 2
|-------------------------------------------|
|-------------------------------------------|
|-------------------------------------------|
|-4--4-4-7------------4--4-4-7--------------|
|-2--2-2-5--5--5-5-5--2--2-2-5--5-5-5-4-4-4-|
|-----------3--3-3-3------------3-3-3-2-2-2-|
Riff 3
|------------------------------------------|
|------------------------------------------|
|2-2-----10-10-10-9---2-2--10-9--7--9------|
|2-2-----10-10-10-9---2-2--10-9--7--9------|
|0-0--/--8--8--8--7---0-0--8--7--5--7------|
|------------------------------------------|

Riff 4
|------------------------------------------------------------------|
|------------------------------------------------------------------|
|------------------------------------------------------------------|
|-2------3------2-------5-7-9------10------9--------10------12-----|
|-0-0000-0-0000-0-0000--3-5-7-7777----7777---7777-8----8-10----10--|
|------------------------------------------------------------------|
  
|-----------------------------------------------------------|
|-----------------------------------------------------------|
|-----------------------------------------------------------|

Продолжаем грести бабос на ботах в Telegram.
Только в этот раз есть вариант автоматизировать это дело, привлекая рефералов. Вы можете заработать если »

|-2------3------2-------5-7-9------10------9--------10------| |-0-0000-0-0000-0-0000--3-5-7-7777----7777---7777-8----8----| |-----------------------------------------------------------| Riff 5 |----------------------------------------------------| |----------------------------------------------------| |----------------------------------------------------| |-2222222222222222------------------5555555555555555-| |-0000000000000000-2222222222222222-3333333333333333-| |------------------0000000000000000------------------| 1st ending 2nd ending |-------------------|--------------------| |-------------------|--------------------| |-------------------|--------------------| |-5555555555555555--|--------------------| |-2222222222222222--|--5555555555555555--| |-------------------|--3333333333333333--| Riff 6 играется когда shagrath "поет" также только медленнее riff 7 |------------------------| |------------------------| |-2---7-10--2---10-7-9-9-| |-2---7-10--2---10-7-9-9-| |-0---5--8--0----8-5-7-7-| |------------------------| Структура песни INTRO RIFF 1 RIFF 2 RIFF 3 RIFF 4 RIFF 5 RIFF 6 RIFF 4 RIFF 5 RIFF 6 RIFF 7 (играть RIFF 7 один раз и затем играть вместе с INTRO RIFF)

найти лекарство
список лекарств






О сайтеАккордыХит-парадПоискУроки ФорумыИщу песню
ПрограммыСвежачок-сПодпискаСтатьи
Яндекс.Метрика