Басовая табулатура Metallica | Bleeding Me гитара табулатуры уроки тексты песен Metallica текст lyrics песня аккорды песни ноты нота электрогитара струна  
   А Б В Г Д Е Ж З И К Л М Н О П Р С Т У Ф Х Ч Ш Ы Э Ю Я       Разные песни
1-9 A B C D E F G H I J K L M N O P Q R S T U V W Y Z      Все исполнители in english

    



группа Metallica, Басовая табулатура песни Bleeding Me

Продолжаем грести бабос на ботах в Telegram.
Только в этот раз есть вариант автоматизировать это дело, привлекая рефералов. Вы можете заработать если »

Группа: Metallica - другие аккорды (225),   о группе (32 статей),   диски (11),   фотографии (49)
Басовая табулатура песни: Bleeding Me
Просмотров: 1786
Прислал: Forever (forever@akkords.ru)




    
Bleeding Me
written by Hetfield, Ulrich & Hammett
as performed on Load
TRANSCRIBED BY: STEVE GORENBERG

  GUITAR
|-----------|-----------------------------------------------------------
|-----------|---------------------------------------------7-------------
|-----------|-5/10-----9H10--97----------------------7/9---107--------
|-----------|---------------------0---(0)--(0)--(0)---------------0--(0)

------------------------------------------------------------------------
----------------------------------------------------------------------7-
--7------/10--10--10--9H10P9----7-----------------7--------------7/9---
------0--------------------------0------0----(0)---------0---(0)--------

-------------------------------------------------|
-------------------------------------------------|
---107------------7-------/10---10--10--9H10P9-|
---------0---(0)-------0-------------------------|

 1,2 VERSES

Продолжаем грести бабос на ботах в Telegram.
Только в этот раз есть вариант автоматизировать это дело, привлекая рефералов. Вы можете заработать если »

|----------------------------------------------------------------------- |----------------------------------------------------------------------- |-7-----0----------------0------5------------0-----------0----0------- |-------0---0------(0)---0----2/3---3-(3)2--0---0--(0)--0---/2---3--(3) ------------------------------------------------------------------------ ------------------------------------------------------------------------ ----0--------------0-----5-----------0-------------------------------0-- --0---0-----(0)--0---2/3---3--32--0---0--0-0-0--/3--3--2H3--21-0-0--0- ------------------------------------------------------------------------ ------------------------------------------------------------------------ ---------0-----5-------------0-------------0----0------------0---------- --(0)--0---2/3---3--(3)2--0---0----(0)--0---/2---3--(3)--0---0---(0)-- ------------------------------------------------------------------------ -------------------------------------------------------------------7-7-- ---0-----5-----------0---------------------------7-7---7-7---7

лекарство в аптеке
список лекарств






О сайтеАккордыХит-парадПоискУроки ФорумыИщу песню
ПрограммыСвежачок-сПодпискаСтатьи
Яндекс.Метрика