Аккорды Сплин | Алкоголь  (3) гитара табулатуры уроки тексты песен Сплин текст lyrics песня аккорды песни ноты нота электрогитара струна  
   А Б В Г Д Е Ж З И К Л М Н О П Р С Т У Ф Х Ч Ш Ы Э Ю Я       Разные песни
1-9 A B C D E F G H I J K L M N O P Q R S T U V W Y Z      Все исполнители in english

    



группа Сплин, Аккорды песни Алкоголь (3)

Группа: Сплин - другие аккорды (208),   о группе (11 статей),   диски (15),   фотографии (57)
Аккорды песни: Алкоголь (3)
Просмотров: 2274
Прислал: Slam (twofish@mail.ru)




    
Сплин.
Алкоголь.
Играется медленно на акустической гитаре.
>-скользить по струне не отрывая пальца на указанный лад.
1|--------------------------------------------------------------
2|--------------------------------------------------------------
3|--2----2-----2----2---2>3--3----2----2-----2----2----0----0---
4|0----0----0----0----0----0----0----0----0----0----0----0----0
5|--------------------------------------------------------------
6|--------------------------------------------------------------
1|------------------------
2|------------------------
3|2-----2---2----2--------
4|----0----0----0----0----
5|------------------------
6|------------------------
Мой друг алкоголь твердо знает,чем дышит Есенин   чемдышитЕсенин                                       
Мой друг алкоголь искупал Брайна Джонса в бассейне
Припев:        
Алкоголь отпустил меня         

Продолжаем грести бабос на ботах в Telegram.
Только в этот раз есть вариант автоматизировать это дело, привлекая рефералов. Вы можете заработать если »

Алкоголь не простил меня Он вернется опять Горло мне обжигать Алкоголь, твою мать... Он пустил корни в теле моем, превратился в растение В среду мы сели за стол, а теперь воскресение Припев. Кто-то смеется в углу, или только мне кажется То, что вчера завязал, завтра снова развяжется Припев. Алкоголь отпустил меня Алкоголь не простил меня Он вернется опять Горло мне обжигать Алкоголь, алкоголь, Алкоголь, алкоголь, Алкоголь, твою мать... Подобрал Захар aka Slam. mailto: twofish@mail.ru








О сайтеАккордыХит-парадПоискУроки ФорумыИщу песню
ПрограммыСвежачок-сПодпискаСтатьи
Яндекс.Метрика