Табулатура Ария | Здесь Куют Металл гитара табулатуры уроки тексты песен Ария текст lyrics песня аккорды песни ноты нота электрогитара струна  
   А Б В Г Д Е Ж З И К Л М Н О П Р С Т У Ф Х Ч Ш Ы Э Ю Я       Разные песни
1-9 A B C D E F G H I J K L M N O P Q R S T U V W Y Z      Все исполнители in english

    



группа Ария, Табулатура песни Здесь Куют Металл

Продолжаем грести бабос на ботах в Telegram.
Только в этот раз есть вариант автоматизировать это дело, привлекая рефералов. Вы можете заработать если »

Группа: Ария - другие аккорды (629),   о группе (7 статей),   диски (18),   фотографии (92)
Табулатура песни: Здесь Куют Металл
Просмотров: 2727
Прислал: Alex (Buraitino@mail.ru)




    
ZDES' KUYUT METALL
--------------------------------------------------------------------------------
Tempo: slow (~=85 bpm)
(0:15 - 0:45)
RIFF 1 (*2 times)
E||----------------------------------|---------------------------------|
H||----------------------------------|---------------------------------|
G||----------------------------------|---------------------------------|
D||-2--------------------------------|-(2)---------------------------7-|
A||-2--------------------------------|-(2)-----------------5-6-7---7-5-|
E||-0--------------------------------|-(0)-----------------------7-----|
E|-----------------------------------|---------------------------------|
H|-----------------------------------|---------------------------------|
G|-----------------------------------|---------------------------------|
D|-(7)-------------------------------|-(7)---------------------5-5-4-5-|
A|-(5)-------------------------------|-(5)---------------------------3-|
E|-----------------------------------|---------------------------------|
E|-----------------------------------|- 2/4 measure -----||
H|-----------------------------------|-------------------||
G|-----------------------------------|-------------------||
D|-(5)-------------------------------|-4--5--0--2--------||
A|-(3)-------------------------------|-------------4-----||

Продолжаем грести бабос на ботах в Telegram.
Только в этот раз есть вариант автоматизировать это дело, привлекая рефералов. Вы можете заработать если »

E|-----------------------------------|----------------3--|| then lots of A5 chords (1:07 - 1:30) RIFF 2 (*4 times) E||---------------------------------|---------------------------------|| H||---------------------------------|---------------------------------|| G||---------------------------------|---------------------------------|| D||-------7---------------5---------|-------4---------------5---------|| A||-0-5-7-----------0-5-7-----------|-0-5-7-----------0-5-7-----------|| E||---------------------------------|---------------------------------|| then Verse with A5, again Riff 2 CHORUS: O - e - o - e - e - o - e - e - e - o - e - e - o... E||---------------------------------|---------------------------------|| H||---------------------------------|---------------------------------|| G||-7-----7-----7---7-----7-----7---|-7-----7-----7---7-----7-----7---|| D||-7-----7-----7---7-----7-----7---|-7-----7-----7---7-----7-----7---|| A||-5-5-5-5-5-5-5---5-5-5-5-5-5-5---|-5-5-5-5-5-5-5---5-5-5-5-5-5-5---|| E||---------------------------------|---------------------------------||

поиск лекарств
список лекарств






О сайтеАккордыХит-парадПоискУроки ФорумыИщу песню
ПрограммыСвежачок-сПодпискаСтатьи
Яндекс.Метрика