Басовая табулатура Metallica | The Frayed Ends Of Sanity гитара табулатуры уроки тексты песен Metallica текст lyrics песня аккорды песни ноты нота электрогитара струна  
   А Б В Г Д Е Ж З И К Л М Н О П Р С Т У Ф Х Ч Ш Ы Э Ю Я       Разные песни
1-9 A B C D E F G H I J K L M N O P Q R S T U V W Y Z      Все исполнители in english

    



группа Metallica, Басовая табулатура песни The Frayed Ends Of Sanity

Группа: Metallica - другие аккорды (225),   о группе (32 статей),   диски (11),   фотографии (49)
Басовая табулатура песни: The Frayed Ends Of Sanity
Просмотров: 2125
Прислал: Forever (forever@akkords.ru)




    
Frayed Ends of Sanity
written by Hetfield and Ulrich
as performed on ...And Justice for All
tab by Hypadermic@aol.com 

Intro:
G|----------------------|
D|----------------------|
A|------3----------2----|
E|-0---------0----------|

  "Oh-ee-oh"
G|--------------|
D|--------------|
A|---1------1---|
E|-0---0-xx---0-|

  Whoosh
G|----------|
D|----------|
A|---1-11-1-|
E|----------|

Verse (this style of Verse is complex. It alternates
the 2nd and 1st riff. When singing, 2nd, and 1st when 
not. After a few of each, alternate between 3rd and 1st 
riff twice. Then go back and do the 1st riff twice):

G|-----------------------------|
D|-----------------------------|
A|---------1-------1-----------|
E|-0-0-0-0----0--0---0-0-0-0-1-|

G|-------------------------------------------------|
D|-------------------------------------------------|
A|-------------------------------------------------|
E|-7-0-0-7-0-0-6-0-0-6-0-0-5-0-0-5-0-0-4-0-0-3-0-0-|

G|-----------------|
D|-----------------|
A|-----------------|
E|-7-7-6-6-5-5-4-4-|

Pre-Chorus:
G|-----------------------------------------|
D|-----------------------------------------|
A|-----------------------------------------|
Узнай ВСЕ о своем друге в ВК или FB
E|-0-0-3-3-5-0-0-3-3-5-0-0-3-3-0-0-3-4-5-6-| G|-----------------------------------------| D|-----------------------------------------| A|-----------------------------------------| E|-0-0-3-3-5-0-0-3-3-0-0-0-3-3-0-0-3-4-5-6-| Chorus: G|----------|-----------|----------|---------| D|----------|-----------|----------|---------| A|----------|-----------|------2---|---------| E|-0---2----|-3-4-5-6---|-0--------|-3-4-5-6-| G|----------|-----------|----------| A|----------|-----------|----------| D|----------|-----------|-7-----5--| E|-0--3--2--|-3-4-5-6---|----------| G|--------------------------| D|--------------------------| A|----------3-4-5-6---------| E|-3-4-5-6----------3-4-5-6-| Bridge (do this, then go one note higher, ect.): G|--------------------------------| D|-2-4-2-5------------------------| A|---------4-2-2h4p2p-----------2-| E|--------------------5-3-2-3-5---| Pre-Solo G|-----------------------------| D|-----------------------------| A|-7p5h7-7p5h7-7p5h7-7p5h7-----| E|-------------------------7-6-| G|------------------------------| D|------------------------------| A|-7p5h7-7p5h7-7p5h7-7p5h7------| E|--------------------------6-8-| Post-Solo G|---------------------------| D|---------------------------| A|-7-----5-7---7---5h7-------| E|---0-0-----0---0-----0-0-0-|

лекарство в аптеке
список лекарств

Купить лазерное оборудование

Диагностическое оборудование. Лазерная маркировка, гравировка и резка

lascompany.ru

сауны липецка с бассейном

banilip.ru

Кассеты под рассаду

Календарь садовода Каталог сайтов Волгограда и области

agroekodom.ru








О сайтеАккордыХит-парадПоискУроки ФорумыИщу песню
ПрограммыСвежачок-сПодпискаСтатьи
Яндекс.Метрика