Басовая табулатура Metallica | The Struggle Within гитара табулатуры уроки тексты песен Metallica текст lyrics песня аккорды песни ноты нота электрогитара струна  
   А Б В Г Д Е Ж З И К Л М Н О П Р С Т У Ф Х Ч Ш Ы Э Ю Я       Разные песни
1-9 A B C D E F G H I J K L M N O P Q R S T U V W Y Z      Все исполнители in english

    



группа Metallica, Басовая табулатура песни The Struggle Within

Работа в Европе для граждан РФ, Украины, СНГ

  • минимальная зарплата $500.
  • виза и контракт на полгода, возможно продление
  • проживание оплачивает работодатель
  • нужен только загранпаспорт
  • оформление 190 €
  • данное предложение - отличная возможность эмигрировать в Европу и закрепиться здесь навсегда.

  • Мы свяжемся с Вами по WhatsApp или Viber и ответим на любые вопросы.
    на нашем сайте можно почитать подробнее »

    Группа: Metallica - другие аккорды (225),   о группе (32 статей),   диски (11),   фотографии (49)
    Басовая табулатура песни: The Struggle Within
    Просмотров: 1833
    Прислал: Forever (forever@akkords.ru)




        
    The Struggle Within
    --- -------- ------
    Metallica
    from the black album
    
    144 bpm
    (4/4)
    
        (drums)
           4                                    (play 3 times)
    |-------------||---------|---------|---------|-----------||
    |-------------||o--------|---------|---------|----------o||
    |-------------||o-7------|-(7)-----|-(7)-----|-5--------o||
    |-------------||--0------|-(0)-----|-(0)-----|-------7---||
    
    ||-----------------|------------------|-------|
    ||-----------------|------------------|---r---|
    ||-----------------|-----------7------|-------|
    ||-0--0--0-0-0-0-0-|-0--0----0-0------|-------|
     
     (2/4)
    ||-----|-----|-----|-----|-----||
    ||--r--|--r--|--r--|--r--|--r--||
    ||-----|-----|-----|-----|-----||
    ||-----|-----|-----|-----|-----||
    
    |-------|-------|-------|-------|-------|-------|---------|-------|
    |---r---|---r---|---r---|---r---|---r---|---r---|---------|---r---|
    |-------|-------|-------|-------|-------|-------|---------|-------|
    |-------|-------|-------|-------|-------|-------|------3--|-------|
    
    (2/4)       Bass fig.1a
    |----------|------------|----------|------------|----------|------------|
    |----------|------------|----------|------------|----------|------------|
    |----------|------------|----------|------------|----------|------------|
    |-0--0---0-|-0--0--2-/3-|-0--0---0-|-0--0--2-/3-|-0--0---0-|-0--0--2-/3-|
                                             
    					 (end Bass fig.1a) Bass fig.1b
    |----------|------------|----------|-----------|----------|------------|
    |----------|------------|----------|-----------|----------|------------|
    |----------|------------|----------|-----------|----------|------------|
    |-0--0---0-|-0--0--2-/3-|-0--0---0-|-0--0--1---|-0--0---0-|-0--0--2-/3-|
    
    |----------|------------|----------|------------|----------|------------|
    |----------|------------|----------|------------|----------|------------|
    |----------|------------|----------|------------|----------|------------|
    |-0--0---0-|-0--0--2-/3-|-0--0---0-|-0--0--2-/3-|-0--0---0-|-0--0--2-/3-|
    
    |----------|------------|-------------|----------|------------|----------|
    |----------|------------|-------------|----------|------------|----------|
    |----------|------------|-------------|----------|------------|----------|
    |-0--0---0-|-0--0--1----|--0--1--0--1-|-0--0---0-|-0--0--2-/3-|-0--0---0-|
    
    |------------|----------|---------|-------------|
    |------------|----------|---------|-------------|
    |------------|----------|---------|-------------|
    |-0--0--2-/3-|-0--0---0-|-0-0-3---|-0--3---0--3-|
                                                                (end Bass fig.1b)
    |--------|------------|---------|------------|---------|---------|----------|
    |--------|------------|---------|------------|---------|---------|----------|
    |--------|------------|---------|------------|---------|---------|----------|
    |-0-0--0-|-0--0--2-/3-|-0-0---0-|-0--0--2-/3-|-0-0---0-|-0-0-3---|-0-3--0-3-|
    
    |-------|
    |---r---|
    |-------|
    |-------|
    
    Bass fig.2      (play 2 times)
    |-------------|--------------|
    |-------------|--------------|
    |-------------|--------------|
    |-3-3---3--3--|-1-1---1-1----|
    
    Chorus          (play 2 times)
    ||-------------|-------------|
    ||-------------|-------------|
    ||-------------|-------------|
    ||-2------2----|-0----0-0--0-|
    
    |------------|----------------|-------------|-----------|
    |------------|------------2-4-|-------------|-----------|
    |------------|----0---2-4-----|-------------|-----------|
    
    Узнай ВСЕ о своем друге в ВК или FB
    |-2------2---|-0--------------|-2------2----|-0----0----| Play bas fig.2 (2 times) |----------|-----------|----------|| |----------|-----------|----------|| |----------|-----------|----------|| |-0----0---|-(0)-------|-(0)------|| (2/4) ||-------|-------|-------|-------|-------|-------|| ||-------|-------|-------|-------|-------|-------|| ||-------|-------|-------|-------|-------|-------|| ||-(0)---|-(0)---|-(0)---|-(0)---|-(0)---|-(0)---|| 2nd verse w/ Bass fig.1a Play Bass fig.2 (4 times) Chorus w/ Bass fig.3 Play Bass fig.2 (4 times) Guitar solo ||-----------------|-------|-------|-----------------|| ||o----------------|---%---|---%---|----------------o|| ||o----------------|-------|-------|----------------o|| ||--0-0--0-0-0-2-3-|-------|-------|-0-0---0-0-0-3---|| ||-----------------|-------|-------|----------------|| ||o----------------|---%---|---%---|---------------o|| ||o------------0-1-|-------|-------|-------------1-o|| ||--3-3--3-3-3-----|-------|-------|-3-3---3-3-3----|| Half time feel ||------------|--------------|| ||o-----------|-------------o|| ||o-----------|-------------o|| ||--2-----2---|-0---0-0--0---|| |-----------|---------------|-----------|-------------| |-----------|-----------2-4-|-----------|-------------|end half time feel |-----------|-----0-2-4-----|-----------|-------------| |-2-----2---|-0-------------|-2----2----|-0-----0-----| (play 3 times) ||-----------------| ||-----------------| ||-------------0-1-| ||-3-3---3-3-3-----| |---------------|---------------|-------------|-------------|------------|| |---------------|---------------|-------------|-------------|------------|| |---------------|---------------|-------------|-------------|------------|| |-3-3---3-3-3-4-|-1--4----1--4--|-3-3-3-3-4---|-1--4---1--4-|-3-3-3------|| ||------------------|-------|-------|----------------|| ||o-----------------|---%---|---%---|---------------o|| ||o-----------------|-------|-------|---------------o|| ||--0-3-0-0-0-0-0-0-|-------|-------|-5-4-3---3-2-1--|| ||-----------|| ||-----------|| ||-----------|| ||-1-2-1-----|| 3rd verse w/ Bass fig.1b Play Bass fig.2 (4 times) Chorus w/ Bass fig.3 Play Bass fig.2 (4 times) |----------|-----------|----------|| |----------|-----------|----------|| |----------|-----------|----------|| |-0----0---|-(0)-------|-(0)------|| (2/4) ||-------|-------|-------|-------|---------|---------|----------|--------|| ||-------|-------|-------|-------|---------|---------|----------|--------|| ||-------|-------|-------|-------|---------|---------|----------|--------|| ||-(0)---|-(0)---|-(0)---|-(0)---|-0-0----0|-0-0-0-0-|-0-0----0-|-0------||

    найти лекарство
    список лекарств

    checkprint

    Справка о колледже Карьера

    checkprint.ru








    О сайтеАккордыХит-парадПоискУроки ФорумыИщу песню
    ПрограммыСвежачок-сПодпискаСтатьи
    Яндекс.Метрика