Табулатура Metallica | The Struggle Within гитара табулатуры уроки тексты песен Metallica текст lyrics песня аккорды песни ноты нота электрогитара струна  
   А Б В Г Д Е Ж З И К Л М Н О П Р С Т У Ф Х Ч Ш Ы Э Ю Я       Разные песни
1-9 A B C D E F G H I J K L M N O P Q R S T U V W Y Z      Все исполнители in english

    



группа Metallica, Табулатура песни The Struggle Within

Работа в Европе для граждан РФ, Украины, СНГ

  • минимальная зарплата $500.
  • виза и контракт на полгода, возможно продление
  • проживание оплачивает работодатель
  • нужен только загранпаспорт
  • оформление 190 €
  • данное предложение - отличная возможность эмигрировать в Европу и закрепиться здесь навсегда.

  • Мы свяжемся с Вами по WhatsApp или Viber и ответим на любые вопросы.
    на нашем сайте можно почитать подробнее »

    Группа: Metallica - другие аккорды (225),   о группе (32 статей),   диски (11),   фотографии (49)
    Табулатура песни: The Struggle Within
    Просмотров: 1528
    Прислал: Forever (forever@akkords.ru)




        
    The Struggle Within
    written by Hetfield and Ulrich
    as performed on Metallica
    tab by Phil Boyle; phil@encycmet.com
    
    drum intro
    1)
    D--2-2--2-2-2-2-2-2-2--2-2
    A--2-2--2-2-2-2-2-2-2--2-2
    E--0-0--0-0-0-0-0-0-0--0-0
      pm......................
    
    2)
    e----------------------------------        -12~~
    B-------------------7-8---7-7-8-10~ repeat -----
    G--------7---7-9-7------9---------- and    -----
    D----7-9-5-9----------------------- end on -----
    A----5-7---7-----------------------        -----
    E--\------------------------------        -----
    
    3)
    D--2-2--2-2-2-2-2--2-2--2-2-2-2-2
    A--2-2--2-2-2-2-2--2-2--2-2-2-2-2
    E--0-0--0-0-0-0-0--0-0--0-0-0-0-0
      pm.............................
    Reaching out
    
    4)
    D--2-2-5-2-2--2-2-2-4/5-2-2
    A--2-2-5-2-2--2-2-2-4/5-2-2
    E--0-0-3-0-0--0-0-0-2/3-0-0
      pm.......................
    Kicking at
    
    5)
    D--2-2--2-2-2-4/5-2-2--2-2-2-4/5-2-2-2-5---5---5
    A--2-2--2-2-2-4/5-2-2--2-2-2-4/5-2-2-2-5---5---5
    E--0-0--0-0-0-2/3-0-0--0-0-0-2/3-0-0-0-3-0-3-0-3
      pm
    What the hell
    
    6)
    G------------------------4h5------4h5
    D--5-5-5h7--3-3-5h7--5-5------3-3----
    A--5-5------3-3------5-5------3-3----
    E--3-3------1-1------3-3------1-1----
    mind...
    
    7)
    D--4--2--4--2--4--2--4--2
    A--4--2--4--2--4--2--4--2
    E--2--0--2--0--2--0--2--0
    Struggle within...
    
    8)
    D----------------------------------------------------------------
    A--2-2-2-2-2-2-2--2-2-2-2-2-2-2--2-2-2-2-2-2-2-765-543--3-3-3
    E--0h3-0-0-0-0-0--0h3-0-0-0-0-0--0h3-0-0-0-0-0-543-321--1-1-1
    post solo
    
    __________________
    solo by: craig makepeace (makepeace_c@hotmail.com)
    
    E|-----12-----12-----12-----12---|-----12-12-----12-12------12-----|
    B|-15F--X-15F----15F----15F------|-15F-------15F-----X--15F--------|
    G|-------------------------------|---------------------------------|
    D|-------------------------------|---------------------------------|
    A|-------------------------------|---------------------------------|
    E|-------------------------------|---------------------------------|
    
    |-----12--12-----12-12------12--|-17FR------17F~~~~~~~~~~~~~~~~~~-|
    |-15F--------15F-----X--15F-----|---------------------------------|
    |-------------------------------|--------------------------X-----|
    |-------------------------------|---------------------------------|
    |-------------------------------|---------------------------------|
    |-------------------------------|---------------------------------|
    
    |-------------------------------|---------------------------------|
    |--/10p8p7--10p7p0--10p8p7------|-10p8p7p0--------10p8p7----------|
    |-------------------------------|-----------9p7p0--------9p7p0----|
    |-------------------------------|---------------------------------|
    |-------------------------------|---------------------------------|
    |-------------------------------|---------------------------------|
    
    
    Узнай ВСЕ о своем друге в ВК или FB
    |-------------------------------|---------------------------------| |-10p8p7------------------------|---------------------------------| |--------9p7p0--9p7p0-----------|---------------------------------| |----------------------9p7p0----|--9p7p0--------------------------| |-------------------------------|---------10---7--------(7)/14----| |-------------------------------|---------------------------------| |-17--19--15--19--14--19----19--|----19----19--14--19--15--19-----| |------------------------17-----|-15----17------------------------| |-------------------------------|---------------------------------| |-------------------------------|---------------------------------| |-------------------------------|---------------------------------| |-------------------------------|---------------------------------| |--19p17p15-17p15p14h15--14-------|---------------------------------------| |----------------------17--17-----|-15p14h15----14---15---17/19---X---8/--| |---------------------------------|----------16---------------------------| |---------------------------------|---------------------------------------| |---------------------------------|---------------------------------------| |---------------------------------|---------------------------------------| |--------------------------------|---------------------------------| |-15-18p15-14h17p15-18p15--17p14-|-18p15----17p14----18-18F--18----| |---------X--------16----16----16|-------16-------16---------------| |--------------------------------|---------------------------------| |--------------------------------|---------------------------------| |--------------------------------|---------------------------------| |-------------------------------|---------------------------------| |-------------------------------|---------------------------------| |------------3------------------|---------3-----------------------| |--5'p0-5'p0----5---3-----------|--3---5------5-------(5)/--------| |----------------------5--------|---------------------------------| |-------------------------------|---------------------------------| wah==================================================wah off |-------------------------------|---------------------------------| |---------14--14---14---14------|-(14)--14------14-----14---------| |---------14--14---14---14------|-(14)--14------14-----14---------| |-------------------------------|---------------------------------| |-------------------------------|---------------------------16p14-| |-------------------------------|---------------------------------| |-------------------------------|---------------------------------| |----14------16-----------------|-------14--17p14------------16'--| |---(14)-----16---14-------14---|--16F------------16--14--14-16F--| |-16-------------------16-------|-----------------------16--------| |-------------------------------|---------------------------------| |-------------------------------|---------------------------------| |-------------------------------|---------------------------------| |-(16)------------------16'-----|--(16)---------------------------| |-(16)---14--------14---16F-----|--(16)---14----------------------| |-------------16----------------|--------------16------16---------| |-------------------------------|---------------------------------| |-------------------------------|---------------------------------| |-------------------------------|---------------------------------| |-------------------------------|---17~~~~~~~~~~~~~~~~~~~~~~~~~~--| |---------------14-----14--16F--|-------------(16)----------------| |--(16)--14h16------16----------|---------------------------------| |-------------------------------|---------------------------------| |-------------------------------|---------------------------------| |-18p15--15----------------------|---------------------------------| |------18--18-15-18p15----15-----|---------------------------------| |----------------------18---17-15|17p15-15-15----------------------| |--------------------------------|------------17-15-17p15---15-----| |--------------------------------|------------------------17--17-15| |--------------------------------|---------------------------------| |--------------------------------|---------------------------------| |--------------------------------|-------15------15-------(15)----| |--------------------------------|-17----15------15-------(15)----| |-------------------------15^17--|(17)-----------------------------| |--------------------------------|---------------------------------| |--------------------------------|---------------------------------|

    найти лекарство
    список лекарств






    О сайтеАккордыХит-парадПоискУроки ФорумыИщу песню
    ПрограммыСвежачок-сПодпискаСтатьи
    Яндекс.Метрика