Табулатура Metallica | The House Jack Built гитара табулатуры уроки тексты песен Metallica текст lyrics песня аккорды песни ноты нота электрогитара струна  
   А Б В Г Д Е Ж З И К Л М Н О П Р С Т У Ф Х Ч Ш Ы Э Ю Я       Разные песни
1-9 A B C D E F G H I J K L M N O P Q R S T U V W Y Z      Все исполнители in english

    



группа Metallica, Табулатура песни The House Jack Built

Группа: Metallica - другие аккорды (225),   о группе (32 статей),   диски (11),   фотографии (49)
Табулатура песни: The House Jack Built
Просмотров: 2124
Прислал: Forever (forever@akkords.ru)




    
The House Jack Built
written by Hetfield, Ulrich & Hammett
as performed on Load
tab by Phil Boyle; phil@encycmet.com

Tune all guitars down 1/2 step
1)
eb----------------------------------
Bb------------------------------5//7
Gb------------------------------5//7
Db------3------5------3------5--5//7  several times 
Ab----3------5------3------5--------                 --3-3-3-3-3
Eb--1------3------1------3----------                 --1-1-1-1-1
   let ring..........................                 pm........

2)
eb---------------------------------------------
Bb------------------------------0--------------
Gb----------------------------2------4------2--
Db--2---5--3p5p3p0-2-3-2----3------5------3---3
Узнай ВСЕ о своем друге в ВК или FB
Ab--2------------------------------------------ Eb--0------------------------------------------ 3) Db----------------------------------2-3 Ab--1-2-2-1-2-2-2-1-2-2-1-2-2-2-3-5-0-1 Eb--0-0-0-0-0-0-0-0-0-0-0-0-0-0-1-3---- pm................................... Opened my eyes 4) Gb--------------5--7----------------------5-------- Db--------5--7--3--5--5--7-7--------5--7--3--5----- Ab--3--5--3--5--------3--5-5--3--5--3--5-----3--3-3 Eb--1--3----------------------1--3--------------1-1 pm.. The higher you walk

лекарство в аптеке
список лекарств

Открытие интернет магазина в рб

Сеть магазинов косметики и парфюмерии. Об открытии бизнеса

recommerce.by

Кеды из китая

Купить! Кеды женские Бульдог. Кеды

miotao.ru








О сайтеАккордыХит-парадПоискУроки ФорумыИщу песню
ПрограммыСвежачок-сПодпискаСтатьи
Яндекс.Метрика