Табулатура Metallica | Prince Charming гитара табулатуры уроки тексты песен Metallica текст lyrics песня аккорды песни ноты нота электрогитара струна  
   А Б В Г Д Е Ж З И К Л М Н О П Р С Т У Ф Х Ч Ш Ы Э Ю Я       Разные песни
1-9 A B C D E F G H I J K L M N O P Q R S T U V W Y Z      Все исполнители in english

    



группа Metallica, Табулатура песни Prince Charming

Продолжаем грести бабос на ботах в Telegram.
Только в этот раз есть вариант автоматизировать это дело, привлекая рефералов. Вы можете заработать если »

Группа: Metallica - другие аккорды (225),   о группе (32 статей),   диски (11),   фотографии (49)
Табулатура песни: Prince Charming
Просмотров: 1728
Прислал: Forever (forever@akkords.ru)




    
Prince Charming
written by Hetfield and Ulrich
as performed on ReLoad
tab by Phil Boyle; phil@encycmet.com

tune all guitars down 1/2 step
1)
Gb---------------------------------5------------
Db---------2--------5----------5-5-5-------5----
Ab--2/152-2--0h5h7---7~~0h5h7-------7-5h7---7~~
Eb--2/152-0------------------------------------
intro

2a) James                            ^V^V^V
Gb------------------------------------------
Db-----------5----------5----------5-7-7-7-5
Ab-----0h5h7------0h5h7------0h5h7----------
Eb--0----------0----------0-----------------
   pm          .          .
   
2b) Kirk
Eb------------------------------------0------------
Bb------------------------------------0------------
Gb-------------------------------------------------
Db--2---2--7--5--7------2-----------------5-5-5----
Ab--2---2--5--3--5--5-5-0-2----xxx------------7-5
Eb--0---0-----------3-3---0----xxx---------------
chorus riffs                  pick slide (right before chorus)

3)
Gb------------------------         ------
Db------------------------         ------
Ab--7-----5h7-----7-7-5h7- 4 times -5-6-7
Eb--0-0-0-0-0-0-0-0-0-0-0-         -3-4-5
   pm.....................

Продолжаем грести бабос на ботах в Telegram.
Только в этот раз есть вариант автоматизировать это дело, привлекая рефералов. Вы можете заработать если »

verse "There's a black cloud up ahead, that is me" 4) Gb--5-------5--5-------5--5-------5--------- Db----7-5-7------7-5-7------7-5-7----5-5---- Ab---------------------------------------7-5 Eb------------------------------------------ fill inbetween verses 5) Gb-------------------------- ------ Db--4-------4p2----4-4-4p2-- -4-5-6 Ab--4-----------4----------4 4 times then -4-5-6 Eb--2--2-2------------------ -2-3-4 pm..... ..... solo riff (Kirk plays with wah and a talk box) 6) Gb------------------------------------------------- Db-------5---5------5---5------7---7---7----7-7---- Ab--7--7---7---7--7---7---7--9---9---9---9------9-7 Eb------------------------------------------------- post solo fills 7) Gb-----2-----2--------------------------------- Db--4--2--4--2------5-----4-----2-------------- Ab--4--0--4--0--0-0---0-0---0-0---0-0-5-0-0-3-2 Eb--2-----2------------------------------------ pm . ... ... ... ... ... "Look up to me"

искать в аптеке
список лекарств






О сайтеАккордыХит-парадПоискУроки ФорумыИщу песню
ПрограммыСвежачок-сПодпискаСтатьи
Яндекс.Метрика