Басовая табулатура Metallica | The Outlaw Torn гитара табулатуры уроки тексты песен Metallica текст lyrics песня аккорды песни ноты нота электрогитара струна  
   А Б В Г Д Е Ж З И К Л М Н О П Р С Т У Ф Х Ч Ш Ы Э Ю Я       Разные песни
1-9 A B C D E F G H I J K L M N O P Q R S T U V W Y Z      Все исполнители in english

    



группа Metallica, Басовая табулатура песни The Outlaw Torn

Продолжаем грести бабос на ботах в Telegram.
Только в этот раз есть вариант автоматизировать это дело, привлекая рефералов. Вы можете заработать если »

Группа: Metallica - другие аккорды (225),   о группе (32 статей),   диски (11),   фотографии (49)
Басовая табулатура песни: The Outlaw Torn
Просмотров: 2801
Прислал: Forever (forever@akkords.ru)




    
The Outlaw Torn
written by: Hetfield, and Ulrich 
as performed on Load
TRANSCRIBED BY STEVE GORENBERG
  
  
  BASS FIG 1           
|-------------------------------------------------------------------
|-------------------------------------------------------------------
|-5--7--------7-----7-----5--7--------7-----7-----9--5-5---5-5-5-5--
|-------0--0--0--0--0--0----------0-0-0--0--0--0--------------------

----------------------------------------------------|
----------------------------------------------------|
-5--------5-------9---5--5---5-5-5-5--5-----------5-|
---0-3-2-----0---------------------------0--3--0----|
 
 
 BASS FIG 2
|------------------------------------------------------------|
|--------2----------------------------2----------------------|
|------------------------------------------------------------|6X's
|-0--3------3-2-3--3---5---3--3---3------3P2-3-2-3--3--3---3-|
 
 
 BASS FIG 3
|----------------------------------------------------------------
|----------------------------------------------------------------
|-----------5--------------5-----------------9-------------5-----
|-5-9-9-9-9----9-7-9-9-9-9-----7--5--7-7-7-7---9-7-9-7-9-7---5-0-
                                          
					  
					  END BASS FIG 3
--------------------------------------------------------|
--------------------------------------------------------|
---------3------------5---------------------------------|
-5-5-5-5----5-3-5-3-3----5-3--5-5-5-5-5--5-5-5--5-5-3-2-|
  
  CHORUS W/ BASS FIG 1 3X's
2 verse w/ bass fig 2 4x's
|---------------------------------------------------------------------|
|--------------------------5-5----------------------------------------|
|---------7--5-5-7---7-7-7-----5-5-5-5-5-5-5--9---5--5--5-5-5-------5-|
|-5-7-0-0-0--------0------------------------------------------0-3-2---|

|-----------------------------------------------------------------|
|-----------------------------------------------------------------|
|---------5--5----5-5-5-5-5--7-7-7-7--9--5--5-5-5-5-5-5-----------|
|-5-7-0-0-0--0--0---------0-----------------------------0-3-2-5-0-|

|-------------------------------------------------------------|
|-7--9--------------------------------------------------------|

Продолжаем грести бабос на ботах в Telegram.
Только в этот раз есть вариант автоматизировать это дело, привлекая рефералов. Вы можете заработать если »

|-5--7----------3---------------------------------------------| |-------0-0-0-0---5---3-5-5-5-0--3-5-5-5-5-5-5-0-3--2-3-3-3-0-| BRIDGE |-----------------------------------------------------------------| |-7--9------------------------------------------------------------| |-5--7----------5-------------------------------------------------| |-------0-0-0-0----5---3-5-5-5-5-0--3-5-5-5-5--5-0-3H5------2-2-2-| |-------------------------------------------------------------------| |-7--9--------------------------------------------------------------| |-5--7-----------5--------------------------------------------------| |-------0-0-0-0----5---3-5-5-5-5-0--3-5-5-5-5-5-5-0-5-3---2-3-3-3-0-| END FIG4 |----------------------------------------------------------------------| |-7--9-----------------------------------------------------------------| |-5--7-----------5-----------------------------------------------------| |--------0-0-0-0----5---3-5-5-5-0-3-5-5-5-5--5-5-3H5--3-3-3-3-3-2-2-2-2| 1. INTERLUDE W/ FIG 4 2X's 2. W/ FIG 2 2X's W/ FIG 3 3. GUITAR SOLO W/ FIG 4 4. OUTRO W/ FIG 4 2X's |-------------------------------------------------------------------| |-------------------------------------------------------------------| |-------------------------------------------------------------------| |-0--0--0--1--1---1---2---2---2---3---3---3---0---0---0----1--1---1-| |----------------------------------------------------------------------| |----------------------------------------------------------------------| |----------------------------------------------------------------------| |-2---2---2---3---3---3---0---0-0-0---1--1--1--1--2--2--2--2--3-3-3-3-3| |--------------------------------------------------------------------| |--------------------------------------------------------------------| |--------------------------------------------------------------------| |-0----0----0----1----1----1----1---2---2---2---2---3----3----3----3-| |-------------------------------------------------------------------- |-------------------------------------------------------------------- |-------------------------------------------------------------------- |-0--0-0-0-0-0-0--0-0-0-0-1-1-1-1-1-1-1-1-1-1-1-1-1--2-2-2-2-2-2-2-2-2 -------------------------| -------------------------| -------------------------|REPEAT AND FADE -3-3-3-3-3-3-3-3-3-3-3-3-|

искать в аптеке
список лекарств






О сайтеАккордыХит-парадПоискУроки ФорумыИщу песню
ПрограммыСвежачок-сПодпискаСтатьи
Яндекс.Метрика