Басовая табулатура Metallica | Poor Twisted Me гитара табулатуры уроки тексты песен Metallica текст lyrics песня аккорды песни ноты нота электрогитара струна  
   А Б В Г Д Е Ж З И К Л М Н О П Р С Т У Ф Х Ч Ш Ы Э Ю Я       Разные песни
1-9 A B C D E F G H I J K L M N O P Q R S T U V W Y Z      Все исполнители in english

    



группа Metallica, Басовая табулатура песни Poor Twisted Me

Работа в Европе для граждан РФ, Украины, СНГ

  • минимальная зарплата $500.
  • виза и контракт на полгода, возможно продление
  • проживание оплачивает работодатель
  • нужен только загранпаспорт
  • оформление 190 €
  • данное предложение - отличная возможность эмигрировать в Европу и закрепиться здесь навсегда.

  • Мы свяжемся с Вами по WhatsApp или Viber и ответим на любые вопросы.
    на нашем сайте можно почитать подробнее »

    Группа: Metallica - другие аккорды (225),   о группе (32 статей),   диски (11),   фотографии (49)
    Басовая табулатура песни: Poor Twisted Me
    Просмотров: 1685
    Прислал: Forever (forever@akkords.ru)




        
    Poor Twisted Me
    written by: Hetfield, and Ulrich
    as performed on Load
    TRANSCRIBED BY: STEVE GORENBERG 
    
      INTRO  (GUITAR)
    |-----------------------------|----------------------------------------|
    |---------------------------5-|-7-7-7-7--7-7-7-7--(7)--7-7-7-7-7-5-----|
    |-----------------------------|------------------------------------75-|
    |-----------------------------|----------------------------------------3
    
     BASS FIG 1                                     END FIG 1
    |----------------------------------------------------------|
    |----------------------------------------------------------|
    |----------------------3-----------------------------------|
    |--5---5-3-5---5-3--5-----------5----5-3-5-----5--3---5--3-|
    
      1,2 VERSES
    |-----------------------------------------------------------
    |-----------------------------------------------------------
    |-----------------------------------------------------------
    |-5--5--5--5--53-------------------------5--5--5--5--53--
    
    ---------------------------------------------------------------------
    ---------------------------------------------------------------------
    ---------------------------------------------------------------------
    -5--5--5--5--5----3-----------X--0H3H5--3--3-3-3--3-3-3--3-3-3-3-3-
    
    --------------------------------------------------------------------|
    --------------------------------------------------------------------|
    -----------------------------------------------------3--------------|
    -3-3-3-----3--3--3-3-3-3---3-3-3-3---5--5-3-5--5-3-5----------------|
    
    |------------------------------------------------------------|
    |------------------------------------------------------------|
    |--------------------------------------3-5---5-5-5---5/7---5-|
    |-5---5-3-5--5-3-5--3---------0---3H5------------------------|
    
    |----------------------------------------------------------------|
    |----------------------------------------------------------------|
    |--3---3-3-3-3/-7-----------------------/7-7-7-7-7-7-7-7-7-7-7-7-|
    |------------------0--3-3-3-3-3-3-5-3---0-0-0-0-0-0-0-0-0-0-0-0-|
    
       BASS FIG 1  2X's
    |--------------------------------------------------------------------
    |--------------------------------------------------------------------
    |-------------------------------3------------------------------------
    |-5---5-3-5---5-3-5-5-5-3-5-3-5---5-----5---3---5----5-5-3--5--5-3-5-
    
    ---------|
    ---------|
    ---------|
    -3--5--3-|
    
    
    Узнай ВСЕ о своем друге в ВК или FB
    BRIDGE (BASS FIG 2) |--------------------------------|-----|------------------------------ |--------------------------------|-----|------------------------------ |--------------------------------|--%--|------------------------------ |-3--3--3-3-3-3-3-3--3-3---3-3-5-|-----|-3--3--3--3--3--3--3--3--3--3- ---------------------------------------------------------------------- ---------------------------------------------------------------------- --------------------------------------------------7------------------- -3---3---3--3--3--3--3--2--2--1--1--0--0--0--0--0---0--0--0--0--0--0-- END FIG 2 ----------------------------| ----------------------------| ----------------------------| -0--0--0--3--3--0--0--3--3--| GUITAR SOLO W/FIG 1 2X's |---------------------| |--------------------------------------- |---------------------| |---7-5--------------------------------- |---------------------| 2X's |-------7-------------------------3----- |-0-0-0-0--(0)--(3)-| |---------5--5-3-5--5-3-5---5-3-5---5-5- ----------------------------------------------| ----------------------------------------------| -3-------------------------7------------------| ---5----5-3-5---/5--3---5------5--/5--3-5-3-5-| BRIDGE (BASS FIG 2) 3RD VERSE |-------------------------------------------------------------------- |-------------------------------------------------------------------- |-5--5--5--5--5/7--5--3---3--3--3--3-/7------------------------------ |---------------------------------------0--3--3--3--3--3--3--3--3--5- ---------------------------------------------------------------------- ----------7--7--7--7-------------------------------------------------- ----------------------7--4--5--5--5--5--5--5--7--5--3--3---3----3----- -5--5--5-------------------------------------------------------------- --------------------------------------------------------------| --------------------------------------------------------------| --57----------------------------------7--7--7--7--7--7--7--7-| -----0--3---3--3--3---3/--0--0--0--0---0--0--0--0--0--0--0--0-| BASS FIG 1 1 1/2X's |-----------------------------------------------| |-----------------------------------------------| |-----------------------------------------------| |-5---5--3--5-3/-5-3/-5--3-----------5-5-5-5-|

    искать в аптеке
    список лекарств






    О сайтеАккордыХит-парадПоискУроки ФорумыИщу песню
    ПрограммыСвежачок-сПодпискаСтатьи
    Яндекс.Метрика