Табулатура Metallica | Poor Twisted Me гитара табулатуры уроки тексты песен Metallica текст lyrics песня аккорды песни ноты нота электрогитара струна  
   А Б В Г Д Е Ж З И К Л М Н О П Р С Т У Ф Х Ч Ш Ы Э Ю Я       Разные песни
1-9 A B C D E F G H I J K L M N O P Q R S T U V W Y Z      Все исполнители in english

    



группа Metallica, Табулатура песни Poor Twisted Me

Работа в Европе для граждан РФ, Украины, СНГ

  • минимальная зарплата $500.
  • виза и контракт на полгода, возможно продление
  • проживание оплачивает работодатель
  • нужен только загранпаспорт
  • оформление 190 €
  • данное предложение - отличная возможность эмигрировать в Европу и закрепиться здесь навсегда.

  • Мы свяжемся с Вами по WhatsApp или Viber и ответим на любые вопросы.
    на нашем сайте можно почитать подробнее »

    Группа: Metallica - другие аккорды (225),   о группе (32 статей),   диски (11),   фотографии (49)
    Табулатура песни: Poor Twisted Me
    Просмотров: 1594
    Прислал: Forever (forever@akkords.ru)




        
    "Poor Twisted Me"
     
    Poor Twisted Me
    written by Hetfield & Ulrich
    as performed on Load
    Tab by Phil Boyle: phil@encycmet.com
    
    tune all guitars down 1/2 step
    1a)                      ^
    eb------------------------------------------------------
    Bb-----------5-----------7------------------------------
    Gb-----------5-----------7------------------------------
    Db----7---7-------7---7-------7--x-x----7---7--7p5------
    Ab-------------------------------x-x---------------7p5--
    Eb--5---5-------5---5-------5----x-x--5---5------------5
    intro riff, verse follows similar pattern
    This is basically played jazz style (let the vibe move you)
    
    1b under verse)
    eb----------------------------------------------
    Bb----------------------------------------------
    Gb------3-3-5-5-3--------------7----------------
    Db------3-3-5-5-3-2----7---5---5---9-9-9-9-9-9-9
    Ab--5-------------0----5---3-------7-7-7-7-7-7-7
    Eb--3-------------------------------------------
    "sympathy.......agony............poor twisted me"
    
    
    Узнай ВСЕ о своем друге в ВК или FB
    2) eb----------------------------------------------------------- Bb----------------------------------------------------------- Gb----------------------------------------------------------- Db----------------------------------------------------------- Ab--5-5-5--5-5-5--5-5-5--5-5-5--4-4-3-3-2-2-2-2-2-2-2-2-2-2-2 Eb--3-3-3--3-3-3--3-3-3--3-3-3--2-2-1-1-0-0-0-0-0-0-0-0-0-0-0 "finally reached the shore.....sea was warm" 3) Gb------------------------7-7-7-7-7----------- Db--7-7-7-7-7--5-5-5-5-5--5-5-5-5-5--2-2-2-2-2 Ab--5-5-5-5-5--3-3-3-3-3-------------0-0-0-0-0 Eb-------------------------------------------- "Good to something my friend" 4) Gb------------------------7-7-7-7-7----------- Db--7-7-7-7-7--5-5-5-5-5--5-5-5-5-5--9-9-9-9-9 Ab--5-5-5-5-5--3-3-3-3-3-------------7-7-7-7-7 Eb-------------------------------------------- "such a burden to be"

    лекарство в аптеке
    список лекарств






    О сайтеАккордыХит-парадПоискУроки ФорумыИщу песню
    ПрограммыСвежачок-сПодпискаСтатьи
    Яндекс.Метрика