Басовая табулатура Radiohead | 2+2=5  (2) гитара табулатуры уроки тексты песен Radiohead текст lyrics песня аккорды песни ноты нота электрогитара струна  
   А Б В Г Д Е Ж З И К Л М Н О П Р С Т У Ф Х Ч Ш Ы Э Ю Я       Разные песни
1-9 A B C D E F G H I J K L M N O P Q R S T U V W Y Z      Все исполнители in english

    



группа Radiohead, Басовая табулатура песни 2+2=5 (2)

Продолжаем грести бабос на ботах в Telegram.
Только в этот раз есть вариант автоматизировать это дело, привлекая рефералов. Вы можете заработать если »

Группа: Radiohead - другие аккорды (189),   о группе (6 статей),   диски (9),   фотографии (134)
Басовая табулатура песни: 2+2=5 (2)
Просмотров: 1304
Подобрал: Echo (indiespace@akkords.ru)




    
                                                                             
G||------|------||-------|------|------|-------||------|------|------|------|
D||------|------||*------|------|------|------*||------|------|------|------|
A||------|------||*------|------|------|------*||------|------|------|------|
E||------|------||-------|------|------|-------||------|------|------|------|

                                                                             
------|------|------|------|------|------|------|------|------|------|------|
------|------|------|------|------|------|------|------|------|------|------|
------|------|------|------|------|------|------|------|------|------|------|
------|------|------|------|------|------|------|------|------|------|------|

                                                                             
------|------|------|------|------|------|------|------|------|------|------|
------|------|------|------|------|------|------|------|------|------|------|
------|------|------|------|------|------|------|------|------|------|------|
------|------|------|------|------|------|------|------|------|------|------|

                                                                             
------|------|------|------|------|------|------|------|------|------|------|
------|------|------|------|------|------|------|------|------|------|------|
------|------|------|------|------|------|------|------|------|------|------|
------|------|------|------|------|------|------|------|------|------|------|

                                                             
------|------|------|-------------------|-------------------|
------|------|------|-------------------|-------------------|
------|------|------|--8----------------|--7----------------|
------|------|------|-------------------|-------------------|

                                                                                
-------------------|-------------------|-------------------|-------------------|
-------------------|-------------------|-------------------|-------------------|
--4----------------|--3----------------|--3----------------|--6----------------|
-------------------|-------------------|-------------------|-------------------|

                                                                                
-------------------|-------------------|-------------------|-------------------|
-------------------|-------------------|-------------------|-------------------|
--4----------------|--4----------------|--3----------------|--8----------------|
-------------------|-------------------|-------------------|-------------------|

                                                                                
-------------------|-------------------|-------------------|-------------------|
-------------------|-------------------|-------------------|-------------------|
--7----------------|--4----------------|--3----------------|--3----------------|
-------------------|-------------------|-------------------|-------------------|

                                                                                
-------------------|-------------------|-------------------|-------------------|
-------------------|-------------------|-------------------|-------------------|
--6----------------|--4----------------|--4----------------|--3----------------|
-------------------|-------------------|-------------------|-------------------|

                                                                  
---------------------|---------------------|---------------------|
---------------------|---------------------|---------------------|
--8----8--------8/---|--7----7--------7/---|--4----4--------4/---|
---------------------|---------------------|---------------------|

                                                                   
---------------------|----------------------|---------------------|
---------------------|----------------------|---------------------|
--3----3--------3/---|--3----3----3----3/---|--6----6--------6/---|
---------------------|----------------------|---------------------|

                                                                         
-----------------------|-----------------------|------------------------|
-----------------------|-----------------------|------------0--5--0--5--|
--4----4----4--0--4----|--4----4----4--0--4/---|--3----3----------------|

Продолжаем грести бабос на ботах в Telegram.
Только в этот раз есть вариант автоматизировать это дело, привлекая рефералов. Вы можете заработать если »

-----------------------|-----------------------|------------------------| ---------------------|---------------------|---------------------| ---------------------|---------------------|---------------------| --8----8--------8/---|--7----7--------7/---|--4----4--------4/---| ---------------------|---------------------|---------------------| ---------------------|----------------------|---------------------| ---------------------|----------------------|---------------------| --3----3--------3/---|--3----3----3----3/---|--6----6--------6/---| ---------------------|----------------------|---------------------| -----------------------|-----------------------|------------------------| -----------------------|-----------------------|------------0--5--0--5--| --4----4----4--0--4----|--4----4----4--0--4/---|--3----3----------------| -----------------------|-----------------------|------------------------| --------------------|--------------------|-------------------| --------------------|--------------------|-------------------| --------------------|--------------------|-------------------| --4/-------6/-------|--4/-------6/-------|--3/---------------| -------------------|--------------------|--------------------| -------------------|--------------------|--------------------| -------------------|--------------------|--------------------| --3/---------------|--4/-------6/-------|--4/-------6/-------| -------------------|-------------------|--------------------| -------------------|-------------------|--------------------| -------------------|-------------------|--------------------| --3/---------------|--3/---------------|--9/-------3/-------| --------------------|-------------------|-------------------| --------------------|-------------------|-------------------| --------------------|-------------------|-------------------| --9/-------3/-------|--3/---------------|--3/---------------| --------------------|--------------------|-------------------| --------------------|--------------------|-------------------| --------------------|--------------------|-------------------| --9/-------3/-------|--9/-------3/-------|--3/---------------| -------------------|--------------------|--------------------| -------------------|--------------------|--------------------| -------------------|--------------------|--------------------| --3/---------------|--9/-------3/-------|--9/-------3/-------| -------------------|-------------------|-------------------|-------------------| -------------------|-------------------|-------------------|-------------------| -------------------|-------------------|-------------------|-------------------| --3/---------------|--3/---------------|--3/---------------|--3/---------------| ------|------|------|------|------|------|------|------|------|------|------|| ------|------|------|------|------|------|------|------|------|------|------|| ------|------|------|------|------|------|------|------|------|------|------|| ------|------|------|------|------|------|------|------|------|------|------||

найти лекарство
список лекарств






О сайтеАккордыХит-парадПоискУроки ФорумыИщу песню
ПрограммыСвежачок-сПодпискаСтатьи
Яндекс.Метрика