Табулатура Metallica | Bad Seed гитара табулатуры уроки тексты песен Metallica текст lyrics песня аккорды песни ноты нота электрогитара струна  
   А Б В Г Д Е Ж З И К Л М Н О П Р С Т У Ф Х Ч Ш Ы Э Ю Я       Разные песни
1-9 A B C D E F G H I J K L M N O P Q R S T U V W Y Z      Все исполнители in english

    



группа Metallica, Табулатура песни Bad Seed

Группа: Metallica - другие аккорды (225),   о группе (32 статей),   диски (11),   фотографии (49)
Табулатура песни: Bad Seed
Просмотров: 2532
Прислал: Forever (forever@akkords.ru)




    
Bad Seed
written by Hetfield, Ulrich, and Hammett
as performed on ReLoad
tab by Phil Boyle; phil@encycmet.com

tune all guitars down 1 1/2 steps ('E' string sounds C#)
low to high C#, F#, B, E, G#, c#

coughing and drum intro
1)
c#--------------------------------------------------------------------
G#--------------------------------------------------------------------
E---------------------------------------------------------------------
B---2-0----------2-0---------5-2-0----------2-0---------2-2-2-2-------
F#------2-0----------2-0-----5-----2-0----------2-0-----2-2-2-2-------
C#----------3-0----------3-0-3---------3-0----------3-0-0-0-0-0-3~~3~~
intro riff

2)
B-----2-2-2-2-2-------------2-2-2-2-2-------------5-5-5-5-7--8-8
F#----2-2-2-2-2-------------2-2-2-2-2-------------5-5-5-5-7--8-8
C#--3p0-0-0-0-0-5p0-3h5-3p0-0-0-0-0-0-5p0-3h5-3p0-3-3-3-3-5--6-6
     pm........             .........             ..............

3)
B-----2-2-2-------2-2-2-------2-2-2
F#----2-2-2-------2-2-2-------2-2-2
C#--3p0-0-0-0h2h3-0-0-0-0h2h3-0-0-0
     pm....       .....       .....      
verse
"Come clean, fess up."

4a) James
Узнай ВСЕ о своем друге в ВК или FB
B---7-5----------7-5----------10 F#------5-7----------7-5------10 C#----------8-5----------8-5--8- 4b) Kirk B---7-7-7-7-7-7-7-10 F#--7-7-7-7-7-7-7-10 C#--5-5-5-5-5-5-5-8- bridge "Ladies and gentilmen" 5a) James B---5-5-5-5-2----------------5-5-5-5-2----------------5-5-5-5-7------------ F#--5-5-5-5-2----------------5-5-5-5-2----------------5-5-5-5-7------------ C#--3-3-3-3-0-0h5p0-3h5-3p0--3-3-3-3-0-0h5p0-3h5-3p0--3-3-3-3-5-5p0-3h5-3p0 5b) Kirk c#------------7~~~~~~~~~~--------------12~~~~~~~~~~-------------7~~~~~~---- G#--------------------------------------------------------------8---------- E-------------------------------------------------------------------------- B---5-5-5-5------------------5-5-5-5------------------5-5-5-5-------------- F#--5-5-5-5------------------5-5-5-5------------------5-5-5-5-------------- C#--3-3-3-3------------------3-3-3-3------------------3-3-3-3-------------- Chorus "Swing the noose again." 6) B---2-2-2-2-5-5-5-5-7-7-7-7-8-8-8-8 F#--2-2-2-2-5-5-5-5-7-7-7-7-8-8-8-8 C#--0-0-0-0-3-3-3-3-5-5-5-5-6-6-6-6 "Choking on a bad seed" (about 2:00)

лекарство в аптеке
список лекарств

Крымскотатарские народные сказки

Народный книгообмен

qvator.com








О сайтеАккордыХит-парадПоискУроки ФорумыИщу песню
ПрограммыСвежачок-сПодпискаСтатьи
Яндекс.Метрика