Табулатура Metallica | To Live Is To Die  (2) гитара табулатуры уроки тексты песен Metallica текст lyrics песня аккорды песни ноты нота электрогитара струна  
   А Б В Г Д Е Ж З И К Л М Н О П Р С Т У Ф Х Ч Ш Ы Э Ю Я       Разные песни
1-9 A B C D E F G H I J K L M N O P Q R S T U V W Y Z      Все исполнители in english

    



группа Metallica, Табулатура песни To Live Is To Die (2)

Продолжаем грести бабос на ботах в Telegram.
Только в этот раз есть вариант автоматизировать это дело, привлекая рефералов. Вы можете заработать если »

Группа: Metallica - другие аккорды (225),   о группе (32 статей),   диски (11),   фотографии (49)
Табулатура песни: To Live Is To Die (2)
Просмотров: 2218
Подобрал: topotun & arche (pups@diawest.net.ua)




    
 Только вступление   
-3-3--/7-7--/12-12-----------|--7-7-8-7-10p7-7----------|--7/10---|
-5-5--/7-7--/12-12-----------|--8-8-8-8-8----7----------|---------|  
----------------12-----------|---------------7----------|---------|
-----------------------------|--------------------------|---------|
-----------------------------|--------------------------|---------|
-0---------------0-----------|---------------7----------|---------|
*2 gtrs. arr. for 1                                 

-10---------------------|-----------------------------------------|

Продолжаем грести бабос на ботах в Telegram.
Только в этот раз есть вариант автоматизировать это дело, привлекая рефералов. Вы можете заработать если »

-7---7-8-7p8h7----------|-----------------------------------------| -7---7-7-7-----7-9/11-9-|-----------------------------------------| ------------------------|-----------------------------------------| ------------------------|----7/9-7--------------------------------| -0----------------------|--0--------------------------------------| И повтор заново!!!!!!

поиск лекарств
список лекарств






О сайтеАккордыХит-парадПоискУроки ФорумыИщу песню
ПрограммыСвежачок-сПодпискаСтатьи
Яндекс.Метрика