Табулатура Radiohead | Lull гитара табулатуры уроки тексты песен Radiohead текст lyrics песня аккорды песни ноты нота электрогитара струна  
   А Б В Г Д Е Ж З И К Л М Н О П Р С Т У Ф Х Ч Ш Ы Э Ю Я       Разные песни
1-9 A B C D E F G H I J K L M N O P Q R S T U V W Y Z      Все исполнители in english

    



группа Radiohead, Табулатура песни Lull

Работа в Европе для граждан РФ, Украины, СНГ

  • минимальная зарплата $500.
  • виза и контракт на полгода, возможно продление
  • проживание оплачивает работодатель
  • нужен только загранпаспорт
  • оформление 190 €
  • данное предложение - отличная возможность эмигрировать в Европу и закрепиться здесь навсегда.

  • Мы свяжемся с Вами по WhatsApp или Viber и ответим на любые вопросы.
    на нашем сайте можно почитать подробнее »

    Группа: Radiohead - другие аккорды (189),   о группе (6 статей),   диски (9),   фотографии (134)
    Табулатура песни: Lull
    Просмотров: 1354
    Подобрал: Max Kolombos (rhguitar@underworld.net)




        
    Intro Riff1   (x4)   (Capo 5th fret)
    e------3--------1---------------0---------2------------
    B---------3--------3-------3-------3---------3------3-
    G-0----------0---------0-----0--------0---------0-----
    D----------------------------------------------------
    A----------------------------------------------------
    E----------------------------------------------------
    Verse1
    Riff 1 (x2)
    Yooooooooooou stop the crowds
    I        cried    out to break the spell
    E----------------------------------------------
    B-------3-------3-------3-------3--------------
    G----0-------0-------0--------0---------------
    D-3-------2-------0--------------------------
    A--------------------------3-------3--2--0--
    E--------------------------------------------
    Riff1
    Riff1 (x2)
    Yoooooooou wake the smile
    Riff 2
    I       just     snapped and lost control
    E----------------------------------------------
    B-------3-------3-------3-------3--------------
    G----0-------0-------0--------0---------------
    D-3-------2-------0--------------------------
    A--------------------------3-------3--2--0--
    E--------------------------------------------
    Riff1
    Chorus Riff
    Distracted     by         irrelevance            the stress and
    e-----------------0h3----------------------0h3-----------------0h3--
    B------3------3---------------3--------3-----------3-------3--------
    G----0------0--------------0---------0-----------0-------0----------
    D------------------------------------------------------------------
    A-2-------3------------------------------------2------3-----------
    E----------------------2----------3--------------------------------
         the      tension       the stress      and the  tension
    e-------0-------------0----------------------0h3-------3---------3---
    B----------3--------3-----------3--------3---------------3---------3-
    G----0------------0----------0--------0-------------0----------0-----
    D--------------------------------------------------------------------
    A------------------------2---------3---------------------------------
    E-2-----------3----------------------------------2----------3--------
                              I'm in a lull
    e-----------3-------------3------------
    B--------3-------------3----------3-----
    G-----0-------------0----------0--------
    D---------------3---------------------
    A--0------------------------2--------3--
    E------------------------------------
    Riff 1  (x2)
    Verse2
    Riff1  (x2)
    There's noooothing more dull
    Riff 2
    Then talking, talking bout' yourself
    E----------------------------------------------
    B-------3-------3-------3-------3--------------
    G----0-------0-------0--------0---------------
    D-3-------2-------0--------------------------
    A--------------------------3-------3--2--0--
    E--------------------------------------------
    Riff1
    Riff1 (x2)
    but whaaaaat I meant to say
    I'm sorry that I lost  control
    E----------------------------------------------
    B-------3-------3-------3-------3--------------
    G----0-------0-------0--------0---------------
    D-3-------2-------0--------------------------
    A--------------------------3-------3--2--0--
    E--------------------------------------------
    
    Chorus Riff
    Distracted     by         irrelevance            the stress and
    e-----------------0h3----------------------0h3-----------------0h3--
    B------3------3---------------3--------3-----------3-------3--------
    
    Узнай ВСЕ о своем друге в ВК или FB
    G----0------0--------------0---------0-----------0-------0---------- D------------------------------------------------------------------ A-2-------3------------------------------------2------3----------- E----------------------2----------3-------------------------------- the tension crawling through the keyhole when e-------0-------------0----------------------0h3-------3---------3--- B----------3--------3-----------3--------3---------------3---------3- G----0------------0----------0--------0-------------0----------0----- D-------------------------------------------------------------------- A------------------------2---------3--------------------------------- E-2-----------3----------------------------------2----------3-------- I'm in a lull e-----------3-------------3------------ B--------3-------------3----------3----- G-----0-------------0----------0--------(lot more Xylophone going on) D---------------3--------------------- A--0------------------------2--------3-- E------------------------------------ (the song was too short it starts to get really good at the end) ================================================================================================= From : Seb <93sperry@worth.org.uk> Intro and 1st part of verse: E ||-3--1---|-0--2---:|| 5x's B ||--3--3-3|--3--3-3:|| G ||0--0--0-|0--0--0-:|| D ||--------|--------:|| A ||--------|--------:|| E ||--------|--------:|| You start to cry E ||-3--1---|-0--2---|--------|--------|| Repeat first riff B ||--3--3-3|--3--3-0|--1--1--|1--1----|| G ||0--0--0-|0--0--0-|-0--0--0|--0-----|| D ||--------|--------|3--2--0-|--------|| A ||--------|--------|--------|-3--320-|| E ||--------|--------|--------|--------|| I cried out to break the spell.. Chorus 1: E ||-------3|-------3|------0-|-------3|| B ||--3---3-|--3---3-|--3----3|--3---3-|| G ||-0---0--|-0---0--|-0---0--|-0---0--|| D ||----0---|----0---|----0---|----0---|| A ||2--3----|--------|2--3----|--------|| E ||--------|2--3----|--------|2--3----|| Distracted by the relevance, The stress and tension E ||-------3|--------|---3---3|--------|| B ||--3---3-|--3--3--|--3---3-|--3-----|| G ||-0---0--|-0--0---|-0---0--|-0------|| D ||----0---|--------|--------|--------|| A ||2--3----|--------|----3---|--------|| E ||--------|2--3--32|0-------|2--3----|| The stress and tension, I'm in a lull Chorus 2: E ||-------3|-------3|-------3|-------3|| B ||--3---3-|--3---3-|--3---3-|--3---3-|| G ||-0---0--|-0---0--|-0---0--|-0---0--|| D ||----0---|----0---|----0---|----0---|| A ||2--3----|--------|2--3----|--------|| E ||--------|2--3----|--------|2--3----|| Distracted by the relevance, The stress and tension... E ||--0---0-|--------|---3---3|--------|| B ||---3---3|--3--3--|--3---3-|--3-----|| G ||-0---0--|-0--0---|-0---0--|-0------|| D ||--------|--------|--------|--------|| A ||2---3---|--------|----3---|--------|| E ||--------|2--3--32|0-------|2--3----|| --- tabbed by seb - 93sperry@worth.org.uk capo: 5 e---3-----1--------0-----2------ b-----3-----3--3-----3-----3---- g-0-----0----0---0-----0-----0-- d------------------------------- b------------------------------- e-------------------------------

    найти лекарство
    список лекарств






    О сайтеАккордыХит-парадПоискУроки ФорумыИщу песню
    ПрограммыСвежачок-сПодпискаСтатьи
    Яндекс.Метрика