Табулатура Radiohead | Sit Down, Stand Up гитара табулатуры уроки тексты песен Radiohead текст lyrics песня аккорды песни ноты нота электрогитара струна  
   А Б В Г Д Е Ж З И К Л М Н О П Р С Т У Ф Х Ч Ш Ы Э Ю Я       Разные песни
1-9 A B C D E F G H I J K L M N O P Q R S T U V W Y Z      Все исполнители in english

    



группа Radiohead, Табулатура песни Sit Down, Stand Up

Продолжаем грести бабос на ботах в Telegram.
Только в этот раз есть вариант автоматизировать это дело, привлекая рефералов. Вы можете заработать если »

Группа: Radiohead - другие аккорды (189),   о группе (6 статей),   диски (9),   фотографии (134)
Табулатура песни: Sit Down, Stand Up
Просмотров: 1102
Подобрал: Echo (indiespace@akkords.ru)




    
Вступление
E-------------------------------------------- 
B-------------------6------------------------ 
G--------6--5----------6--5---------6--5----- 
D-------------------------------------------- 
A------8-------------------------8----------- 
E-------------------------------------------- 
Основный рифф
E------------------------------------------------------------------------------------------ 
B------------------------------------------------------------------------------------------ 
G------------6-----6-----5-----5-----5-------------------------------------------------4--- 
D-----------------------------------------------8-----8-----------6-----6--------6--------- 
A------8--8-----8-----8----8-----8-----8--6--6-----6-----6--4--4-----4-----4--4-----4------ 
E------------------------------------------------------------------------------------------ 
техно - часть
E---------------------------------------------------------------------------------------------------------- 

Продолжаем грести бабос на ботах в Telegram.
Только в этот раз есть вариант автоматизировать это дело, привлекая рефералов. Вы можете заработать если »

B----------------------------------------------------------------------------------------------------------- G----------------------------------------------------------------------------------------------------------- D------------3-----3--------3-----3--------3-----3--------3-----3--------3-----3--------3-----3--------3--3- A------------------------------------1--1-----1--------------------4--4-----4-----3--3-----3-----3--3-----3- E------1--1-----1-----1--1-----1--------------------4--4-----4---------------------------------------------- Окончание E---------------------------------------------------------------------------------------------------------- B----------------------------------------------------------------------------------------------------------- G----------------------------------------------------------------------------------------------------------- D-----------8-----8--------7-----7--------4-----4--------3-----3--------3-----3--------3-----3--------3---3- A-----6--6-----6-----5--5-----5-----2--2-----2-----1--1-----1-----1--1-----1-----1--1-----1-----1--1-----1-- E-----------------------------------------------------------------------------------------------------------

искать в аптеке
список лекарств






О сайтеАккордыХит-парадПоискУроки ФорумыИщу песню
ПрограммыСвежачок-сПодпискаСтатьи
Яндекс.Метрика