Табулатура Ария | Ночь В Июле гитара табулатуры уроки тексты песен Ария текст lyrics песня аккорды песни ноты нота электрогитара струна  
   А Б В Г Д Е Ж З И К Л М Н О П Р С Т У Ф Х Ч Ш Ы Э Ю Я       Разные песни
1-9 A B C D E F G H I J K L M N O P Q R S T U V W Y Z      Все исполнители in english

    



группа Ария, Табулатура песни Ночь В Июле

Продолжаем грести бабос на ботах в Telegram.
Только в этот раз есть вариант автоматизировать это дело, привлекая рефералов. Вы можете заработать если »

Группа: Ария - другие аккорды (629),   о группе (7 статей),   диски (18),   фотографии (92)
Табулатура песни: Ночь В Июле
Просмотров: 4366
Подобрал: Step (var1all@yandex.ru)




    
E-----0-1-3-1-0-----0---------------------0-1-3h5p3p0-------0---|
H---------------1-------1p0---0---0-------------------5---------|
G-5-0-----------------2-------------5-5-0---------------5-2-----|
D-----------------0---------3-----------------------------------|
A-3-------1---0-----------------------3-------0-------3-0-------|
E-------------------------------3-------------------------1-----|
E-------------------------0-1-3-1-0---0-------------------------|
H---1p0---0---1p0-------------------1-----1-3-3-0---------------|
G-2---------------2p0-5-0-------------------------2-0-----------|
D-------3-------------------------------0-----------------------|
A---------------------3-------1---0-----------------------------|

Продолжаем грести бабос на ботах в Telegram.
Только в этот раз есть вариант автоматизировать это дело, привлекая рефералов. Вы можете заработать если »

E-----------3---------------------------------------------------| E-----0-1-3h5p3p0-------0----------------------------0------12*-| H-----------------5----------1p0---0---1p0---------1------------| G-5-0---------------5-2---2----------------2p0-5-0-------14-----| D--------------------------------3------------------------------| A-3-------0-------3-0-1------------------------3----------------| E------------------------------------3-----------------3--------| * флажалет

найти лекарство
список лекарств






О сайтеАккордыХит-парадПоискУроки ФорумыИщу песню
ПрограммыСвежачок-сПодпискаСтатьи
Яндекс.Метрика