Табулатура Ария | Закат  (4) гитара табулатуры уроки тексты песен Ария текст lyrics песня аккорды песни ноты нота электрогитара струна  
   А Б В Г Д Е Ж З И К Л М Н О П Р С Т У Ф Х Ч Ш Ы Э Ю Я       Разные песни
1-9 A B C D E F G H I J K L M N O P Q R S T U V W Y Z      Все исполнители in english

    



группа Ария, Табулатура песни Закат (4)

Продолжаем грести бабос на ботах в Telegram.
Только в этот раз есть вариант автоматизировать это дело, привлекая рефералов. Вы можете заработать если »

Группа: Ария - другие аккорды (629),   о группе (7 статей),   диски (18),   фотографии (92)
Табулатура песни: Закат (4)
Просмотров: 2393
Прислал: FIRE (pozhar-off@yandex.ru)




    
СОЛО К ПЕСНЕ "ЗАКАТ", СО СБОРНИКА "2000 И ОДНА НОЧЬ"
|-----------4---p2--2-p0------------------|--------------------------------------|
|-----------0---------------4----2--------|-(2)--------2----------------0--------|
|------1----------------------------------|------------2----------------2--------|
|-2---------------------------------------|--------------------------------------|
|-----------------------------------------|--------------------------------------|
|-----------------------------------------|--------------------------------------|
|--------------4---p2---p0------------------|----------------------------------------|
|-(0)----------0--------------4----2--------|-(2)---------2--------2--------4--------|
|-(2)-------1-------------------------------|-------------2--------2--------4--------|
|--------2----------------------------------|----------------------------------------|
|-------------------------------------------|----------------------------------------|
|-------------------------------------------|----------------------------------------|
|------------------------------------------|-----------4-------------------------------|

Продолжаем грести бабос на ботах в Telegram.
Только в этот раз есть вариант автоматизировать это дело, привлекая рефералов. Вы можете заработать если »

|-(4)--------5--------------5----7----4----|------5---------5---------7----5p4h5--4----| |-(4)-------------6------------------------|-4-------------------4---------------------| |----------------------7-------------------|-------------------------------------------| |------------------------------------------|-------------------------------------------| |------------------------------------------|-------------------------------------------| |--------------------------------------|-----------------------------------| |-2----0----2--------5-----------------|-4--------5------------------------| |-----------2-----------------4--------|----------4------------------------| |-----------------------------4--------|-----------------------------------| |--------------------------------------|-----------------------------------| |--------------------------------------|-----------------------------------|

найти лекарство
список лекарств






О сайтеАккордыХит-парадПоискУроки ФорумыИщу песню
ПрограммыСвежачок-сПодпискаСтатьи
Яндекс.Метрика