Табулатура Ария | Все, что было  (2) гитара табулатуры уроки тексты песен Ария текст lyrics песня аккорды песни ноты нота электрогитара струна  
   А Б В Г Д Е Ж З И К Л М Н О П Р С Т У Ф Х Ч Ш Ы Э Ю Я       Разные песни
1-9 A B C D E F G H I J K L M N O P Q R S T U V W Y Z      Все исполнители in english

    



группа Ария, Табулатура песни Все, что было (2)

Продолжаем грести бабос на ботах в Telegram.
Только в этот раз есть вариант автоматизировать это дело, привлекая рефералов. Вы можете заработать если »

Группа: Ария - другие аккорды (629),   о группе (7 статей),   диски (18),   фотографии (92)
Табулатура песни: Все, что было (2)
Просмотров: 2763
Прислал: Taft-off (pryanicov@mail.ru)




    
1------0-2---------0-2-------------2--5----0------------------------------2---7---7-9-7---5--5-7-5-----------------
2------0-2---2-----0-2----------2-------2----0---------0--0---------------4----------------------------------------
3--------------2-------------2-----------------------1------1-------------4----------------------------------------
4----4-------------------0-------------------------2----------2-------4--------------------------------------------5------------------------------------------------------------------2-----------------------------------------------
6--2--------------------------------------------0------------------------------------------------------------------
1------0-2---------0-2--------------2---------------7--9-11-9-7-9------7-------------------------------------------
2------0-2---2-----0-2----------2-----2-------------9------------------7-------------------------------------------
3--------------2--------------2---2-----------------9------------------8-------------------------------------------
4----4-------------------0---------------------------------------------9-------------------------------------------
5----------------------------------------0--2-------7------------------9---9---7----9------------------------------
6--2-------------------------------------------0-----------------------7---7---5----7------------------------------
1------5------5-------------2-----2-----------------0-----0----------------2------2-2------------------------------
2--------2------2----2--------2-----2---2-------------0-----0---0------------4--------4----4-----------------------
3----------2------2-------------2-----2-----------------1-----1----------------4--------4--------------------------
4------------------------0-----------------------------------------------------------------------------------------
5---------------------------------------------------------------------2--------------------------------------------
6--2------------------------------------------0--------------------------------------------------------------------
Дверь на ключ,    и свинцом то . ска,        боль в душе,   словно смерть близка.          О .
1------5------5------------2-----2----------------0------0--------------2---------2------------
2---------2-----2---2--------2------2----2----------0------0----0----------4----------4---4-----
3-----------2-----2------------2------2----------------1------1--------------4----------4-------
4-----------------------0----------------------------------------------------------------------------------
5---------------------------------------------------------------------2------------------------------
6--2------------------------------------------0----------------------------------------------------------
 -дин лишь шаг сможет всё ре - шить,      теперь ты - враг,    я не знаю, как мне жить!
1---------------------------------------2-------
2------3-----3-------3-----3--------2-----------
3------4-----4-------4-----4------2-------------
4-----------------------------------------------

Продолжаем грести бабос на ботах в Telegram.
Только в этот раз есть вариант автоматизировать это дело, привлекая рефералов. Вы можете заработать если »

5---2------0------------------------------------ 6-----------------4------0------2--------------- Как даль - ше жить? 1--------0-2-------0-2-----------2--5---0------------------------------7---------------- 2--------0-2--2----0-2--------2-------2----0-------------0--0----------7---------------- 3---------------2-----------2--------------------------1------1--------8---------------- 4----4-------------------0--------------------------2-----------2------9---------------- 5------------------------------------------------------------------2---9---9---7---9---- 6--2--------------------------------------------0----------------------7---7---5---7---- У-у-у-у-у........ Мне колдун предсказал печаль, долгий путь в грозовую даль. Он словно зверь чуял дым беды. Закрыта дверь, ливень смоет все следы . Так хочешь ты. Припев: D E F#m Всё, что было . свет мой, чистый и святой. Всё, что было . рок мой, жадный и слепой. D E D E Всё, что будет . крест мой, семь кругов пройти мне D E В огненной пустыне. Голос твой заблудился здесь, День и ночь он звучит во мне. Я молю отпустить меня, Но за стеклом вижу вновь твои глаза, Твои глаза... Припев.

искать в аптеке
список лекарств






О сайтеАккордыХит-парадПоискУроки ФорумыИщу песню
ПрограммыСвежачок-сПодпискаСтатьи
Яндекс.Метрика